Escape The Fate- My apocalypse

(/) Slide Up  (\) Slide Down  (h) Hammer On  (p) Pull Off  (b) Bend (r) Release (v) Vibrato


D|----0-0-------------0--0------0-0-----------------0--15-12-----15-12-----15-12------
A|----8-8-------------0--0------8-8--8-10-8---------0-------13-12-----13-12-----13-12-
F|----9-9-------9--9--9--9------9-9---------9-9--9--9---------------------------------
C|----7-7------10-10-10-10------7-7----------10-10-10---------------------------------
G|-0--0-0---8---8--8--8--8---0--0-0-----------8--8--8---------------------------------
C|------------------------------------------------------------------------------------

D|--15-12-----------------15-12-----------------------------------15-12----15-12-----
A|-------13-12-10-12-13-12-----13-12-13-15-13-12-12-12-13-12-13-12----13-12-----13-12
F|-----------------------------------------------------------------------------------
C|-----------------------------------------------------------------------------------
G|-----------------------------------------------------------------------------------
C|-----------------------------------------------------------------------------------

D|-15-12-----15-12-----------15-12--------------------15-12-----15-12-----15-12-----1
A|------13-12-----10-12-13-12-----13-12-13-15-13-15-17-----13-12-----13-12-----13-12-
F|-----------------------------------------------------------------------------------
C|-----------------------------------------------------------------------------------
G|-----------------------------------------------------------------------------------
C|-----------------------------------------------------------------------------------

D|-15-12-----------------15-12-----------------------------------15-12-----15-12-----
A|------13-12-10-12-13-12-----13-12-13-15-13-12-12-12-13-12-13-12-----13-12-----13-12
F|-----------------------------------------------------------------------------------
C|-----------------------------------------------------------------------------------
G|-----------------------------------------------------------------------------------
C|-----------------------------------------------------------------------------------

D|-15-12-----15-12-----------15-12---------------------------------------------------
A|------13-12-----10-12-13-12-----13-12-13-15-13-12-12-13-12-13-12----20--20--20--20-
F|----------------------------------------------------------------------17--17--17--17
c|-----------------------------------------------------------------------------------
G|-----------------------------------------------------------------------------------
C|-----------------------------------------------------------------------------------

D|-----------------------------------------------------------------------------------
A|--20--20--17-------20--20--20--20--20--20--17------20--20--20---20--20--20--17-----
F|----17--17--17---17--17--17--17--17--17--17--17--17--17--17--17--17--17---17---17--
C|--------------19-------------------------------19--------------------------------19
G|-----------------------------------------------------------------------------------
C|-----------------------------------------------------------------------------------

D|-----------------------------------------------------------------------------------
A|---20--20--20--20--20--20--17------20---------8---------8--------------------------
F|-17--17--17--17--17--17--17--17--17-----2-2-x-9---2-2---9----------9-5-5-x-4-2-2---
C|-------------------------------19-------2-2-x-7-x-2-2-x-7-x-3-3-x-10-5-5-x-4-2-2-x-
G|----------------------------------------0-0-x---x-0-0-x---x-3-3-x--8-3-3-x-2-0-0-x-
C|------------------------------------------------x-----x---x-3-3-x----------------x-

D|----------------------------------------------------------------------
A|-8---2-2---8--------------------8-x-8-x-8-8---------------------
F|-9---2-2---9----------9---------9-x-9-x-9-9--9--9-------5-5-5--
C|-7-x-0-0-x-7-x-3-3-x-10-0-0-----7-x-7-x-7-7-10-10-3-3-3-5-5-5-----------
G|---x-----x---x-3-3-x--8-0-0-0-0-0-x-0-x-0-0--8--8-3-3-3-3-3-3-
C|---x-----x---x-3-3-x----0-0-0-0-------------------3-3-3--------
Guitar Tab Creator is intended to store guitar tab created through the tool. It currently does not support in-line text editing. Any text you place in here will be lost. If you need to comment on your tab, please use the "Tab Notes" section located below.