Girl Who Played Me

(/) Slide Up  (\) Slide Down  (h) Hammer On  (p) Pull Off  (b) Bend (r) Release (v) Vibrato


E|--3--3--3--3--3--3--|--3--3--3--3--3--3--|--3--3--3--3--3--3--|--3--3--3--3--3--3--|-----
B|--3--3--3--3--3--3--|--3--3--3--3--3--3--|--3--3--3--3--3--3--|--3--3--3--3--3--3--|-----
G|--0--0--0--0--0--0--|--0--0--0--0--0--0--|--2--2--2--2--2--2--|--2--2--2--2--2--2--|-----
D|--0--0--0--0--0--0--|--0--0--0--0--0--0--|--0--0--0--0--0--0--|--0--0--0--0--0--0--|-----
A|--2--2--2--2--2--2--|--2--2--2--2--2--2--|--------------------|--------------------|-----
E|--3--3--3--3--3--3--|--3--3--3--3--3--3--|--------------------|--------------------|-----



E|--3--3--3--3--3--3--|--3--3--3--3--3--3--|--3--3--3--3--3--3--|--3--3--3--3--3--3--|--
B|--3--3--3--3--3--3--|--3--3--3--3--3--3--|--3--3--3--3--3--3--|--3--3--3--3--3--3--|--
G|--0--0--0--0--0--0--|--0--0--0--0--0--0--|--2--2--2--2--2--2--|--2--2--2--2--2--2--|--
D|--2--2--2--2--2--2--|--2--2--2--2--2--2--|--2--2--2--2--2--2--|--2--2--2--2--2--2--|--
A|--2--2--2--2--2--2--|--2--2--2--2--2--2--|--------------------|--------------------|--
E|--------------------|--------------------|--------------------|--------------------|--



E|--3--3--3--3--3--3--|--3--3--3--3--3--3--|--3--3--3--3--3--3--|--3--3--3--3--3--3--|--
B|--3--3--3--3--3--3--|--3--3--3--3--3--3--|--3--3--3--3--3--3--|--3--3--3--3--3--3--|--
G|--0--0--0--0--0--0--|--0--0--0--0--0--0--|--2--2--2--2--2--2--|--2--2--2--2--2--2--|--
D|--0--0--0--0--0--0--|--0--0--0--0--0--0--|--0--0--0--0--0--0--|--0--0--0--0--0--0--|--
A|--2--2--2--2--2--2--|--2--2--2--2--2--2--|--------------------|--------------------|--
E|--3--3--3--3--3--3--|--3--3--3--3--3--3--|--------------------|--------------------|--



E|--3--3--3--3--3--3--|--3--3--3--3--3--3--|--3--3--3--3--3--3--|--3--3--3--3--3--3--|--
B|--3--3--3--3--3--3--|--3--3--3--3--3--3--|--3--3--3--3--3--3--|--3--3--3--3--3--3--|--
G|--0--0--0--0--0--0--|--0--0--0--0--0--0--|--2--2--2--2--2--2--|--2--2--2--2--2--2--|--
D|--2--2--2--2--2--2--|--2--2--2--2--2--2--|--2--2--2--2--2--2--|--2--2--2--2--2--2--|--
A|--2--2--2--2--2--2--|--2--2--2--2--2--2--|--------------------|--------------------|--
E|--------------------|--------------------|--------------------|--------------------|--



E|--3--3--3--3--3--|--3--3--3--3--3--|--
B|--3--3--3--3--3--|--3--3--3--3--3--|--
G|--0--0--0--0--0--|--2--2--2--2--2--|--
D|--0--0--0--0--0--|--0--0--0--0--0--|--
A|--2--2--2--2--2--|-----------------|--
E|--3--3--3--3--3--|-----------------|--



E|--3--3--3--3--3--|--3--3--3--3--3--|--
B|--3--3--3--3--3--|--3--3--3--3--3--|--
G|--0--0--0--0--0--|--2--2--2--2--2--|--
D|--0--0--0--0--0--|--2--2--2--2--2--|--
A|--2--2--2--2--2--|-----------------|--
E|--2--2--2--2--2--|-----------------|--
http://www.guitartabcreator.com
Guitar Tab Creator is intended to store guitar tab created through the tool. It currently does not support in-line text editing. Any text you place in here will be lost. If you need to comment on your tab, please use the "Tab Notes" section located below.