new song

(/) Slide Up  (\) Slide Down  (h) Hammer On  (p) Pull Off  (b) Bend (r) Release (v) Vibrato


E|----------------------------------------
B|----------------------------------------
G|--------4--------4--------4-----4b6--4--
D|-----2--------2--------2-----2----------
A|--4--------0----------------------------
E|--------------------0-------------------



E|--------------------------------------------------------------------------------
B|--------------------------------------------------------------------------------
G|--------------------------------------------------------------------------------
D|--6h7--2h4----------------6-----------------------------------------------------
A|------------2h4--4--7--4-----7-----9-----9-----9-----9-----9-----9-----9-----9--
E|--------------------------------0-----0-----0-----0-----0-----0-----0-----0-----



E|--------------------------
B|--------------------------
G|-----9-----4--6-----------
D|--9--7--4--2--6--7--2--7--
A|--7-----2-----4--7--2--7--
E|-----------------5--0--5--



E|----------------------------------------------
B|--------------------------------------5h4-----
G|-------------------------------------------4--
D|--------------------------------------4-------
A|--7-----------2--------4----------------------
E|-----0--0--0-----0--0-----0--0--0--0-------0--



E|-------------------------------
B|-------------------------------
G|-----------4------4------------
D|--4---------------4------------
A|-------------------------------
E|--2--------2------2------------
http://www.guitartabcreator.com
Guitar Tab Creator is intended to store guitar tab created through the tool. It currently does not support in-line text editing. Any text you place in here will be lost. If you need to comment on your tab, please use the "Tab Notes" section located below.