"Why are our days numbered and not, say, lettered?"

(/) Slide Up  (\) Slide Down  (h) Hammer On  (p) Pull Off  (b) Bend (r) Release (v) Vibrato
E|---------------------------------------------------------------------
B|---7---7---7---7---8---8---5---5---7---7---7---7---10---10---12-12\7-
G|-0---0---0---0---0---0---0---0---0---0---0---0---0----0----0---------
D|---------------------------------------------------------------------
A|---------------------------------------------------------------------
E|---------------------------------------------------------------------



E|--------------------------------------------------------------------------------------
B|--7--------7--8--7--5--7--7-----7-----7--8--10/0--3-----3-----3--5--3--0--3--0--------
G|-----0--0--------------------0-----0-----------------0-----0--------------------1--0--
D|--------------------------------------------------------------------------------------
A|--------------------------------------------------------------------------------------
E|--------------------------------------------------------------------------------------





E|--------------------------------------------------
B|-----7-----7-----7-----7-----8-----8-----5-----5--
G|--0-----0-----0-----0-----0-----0-----0-----0-----
D|--------------------------------------------------
A|--------------------------------------------------
E|--------------------------------------------------
http://www.guitartabcreator.com
Guitar Tab Creator is intended to store guitar tab created through the tool. It currently does not support in-line text editing. Any text you place in here will be lost. If you need to comment on your tab, please use the "Tab Notes" section located below.