Troubalant Bolero - Violan solo P.1

(/) Slide Up  (\) Slide Down  (h) Hammer On  (p) Pull Off  (b) Bend (r) Release (v) Vibrato


E|-------------------------------------------------------------------------------------------
B|-------------------------------------------------------------------------------------------
G|-------------------------------------------------------------------------------------------
D|-------9--9------6--7--9--5--7--9--9--------------5--7/9--9--7--6--7----7--9--7------5--5--
A|--------------------------------------------5--5-------------------------------------------
E|--7----------------------------------------------------------------------------------------



E|----------------------------------------------------------------------------------------
B|----------------------------------------------------------------------------------------
G|--------------------------------------------------------------8--11--9--11--9--8--------
D|--5--7--4-----3/4------3--4--3v----------------------------9----------------------9--6--
A|-----------7---------------------------------3--2--1----2-------------------------------
E|----------------------------------------------------------------------------------------



E|-------------------------------------------------------------------------------------------
B|-------------------------------------------------------------------------------------------
G|-----------------------------------------------------------------4-------------------------
D|--7--9----5--7--9--9v----5--7--9--7----6/7--9----7--7---------4-----4----------------------
A|-----------------------------------------------------------6-----------7--6--7/9----7--7v--
E|-------------------------------------------------------------------------------------------





http://www.guitartabcreator.com
Guitar Tab Creator is intended to store guitar tab created through the tool. It currently does not support in-line text editing. Any text you place in here will be lost. If you need to comment on your tab, please use the "Tab Notes" section located below.