so what

(/) Slide Up  (\) Slide Down  (h) Hammer On  (p) Pull Off  (b) Bend (r) Release (v) Vibrato


E|-----11--9--------7--5-------------5----------------------------------------------------------
B|-----9---9--------8--6-------------6----------------------------------------------------------
G|-----8---10-------7--5-------------4----------------------------------------------------------
D|--6------------7----------------5---------------5--------------------5------------------------
A|---------------------------------------------7--------8-----7-----8------------9-----8-----8--
E|---------9--------------------------------5--------5-----5-----5------------5-----7-----6-----



E|---------------------------------------------------------------------------------------
B|---------------------------------------------------------------------------------------
G|---------------------------------------------------------------------------------------
D|---------------------------------------------------------------------------------------
A|--5-----------5/7----5v----------5----------5/7----5-------------5----------5/7----5v--
E|-----5--7--8------------------------5--7/8------------5-------------5--7/8-------------



E|--------------------
B|--------------------
G|--------------------
D|--------------------
A|--5/7----7--7--5----
E|--------------------
http://www.guitartabcreator.com
Guitar Tab Creator is intended to store guitar tab created through the tool. It currently does not support in-line text editing. Any text you place in here will be lost. If you need to comment on your tab, please use the "Tab Notes" section located below.