j'attendrai verse 1

(/) Slide Up  (\) Slide Down  (h) Hammer On  (p) Pull Off  (b) Bend (r) Release (v) Vibrato


E|------------------------------10------11/12------10h12p10--8-----------------------------------
B|--8--12--13------13v----------------------------------------------10b12----10h12p10--8--9--10--
G|-----------------------------------------------------------------------------------------------
D|-----------------------------------------------------------------------------------------------
A|-----------------------------------------------------------------------------------------------
E|-----------------------------------------------------------------------------------------------



E|--------------------------------------------------------------------------
B|--10--10----10----------------------------8--12--11--10----10--10----10v--
G|---------------------------------------9----------------------------------
D|---------------------------------9/10-------------------------------------
A|--------------------------7--10-------------------------------------------
E|--------------------7--8--------------------------------------------------



E|--------------10---------------------------------------------13-------------------------------------
B|--11p10p9h10--------15--15v----13--14b15----13h15p13\12--13------13--12----12p11p10--11b12--11--10--
G|----------------------------------------------------------------------------------------------------
D|----------------------------------------------------------------------------------------------------
A|----------------------------------------------------------------------------------------------------
E|----------------------------------------------------------------------------------------------------



E|---------------------------------------------------8--10--11--12--12--10-12--
B|--10--10----10p8p7h8/12--11--10----10--10----10------------------------------
G|---------------------------------------------------5--7---8---9---9---7-/9---
D|-----------------------------------------------------------------------------
A|-----------------------------------------------------------------------------
E|-----------------------------------------------------------------------------



E|----
B|----
G|----
D|----
A|----
E|----



E|--8--10b12----10h11p10p8--10b11----10h11p10p8--12----------
B|---------------------------------------------------8----8--
G|-----------------------------------------------------------
D|-----------------------------------------------------------
A|-----------------------------------------------------------
E|-----------------------------------------------------------



E|------------------------------------------------------------12--12-----8----8--8-------
B|---------8--12------11-----10-------8--10b12----10h11p10p8----------8---------------8--
G|------9--------------------------9-----------------------------------------------------
D|--10------------10------9--------------------------------------------------------------
A|---------------------------------------------------------------------------------------
E|---------------------------------------------------------------------------------------
http://www.guitartabcreator.com
Guitar Tab Creator is intended to store guitar tab created through the tool. It currently does not support in-line text editing. Any text you place in here will be lost. If you need to comment on your tab, please use the "Tab Notes" section located below.