J'attendrai 3

(/) Slide Up  (\) Slide Down  (h) Hammer On  (p) Pull Off  (b) Bend (r) Release (v) Vibrato


E|------15--14------14--13------13--12-----12--10-----10--8-----8--7-----7--6-----6--5-----5--
B|--------------------------------------------------------------------------------------------
G|--12----------11----------10----------9----------7---------5--------4--------3--------2-----
D|--------------------------------------------------------------------------------------------
A|--------------------------------------------------------------------------------------------
E|--------------------------------------------------------------------------------------------



E|---------------------------------------5--3------------------------------
B|---------12--10--8---------------------------4--5------------------------
G|--------------------9------------------------------4------4--6--4--3--2--
D|--9--10----------------10--7--6--5--4------------------------------------
A|-------------------------------------------------------------------------
E|-------------------------------------------------------------------------



E|--------7--5--3----------------------------------
B|-----------------5-----------------8--7--6----6--
G|--4--5--------------5----------------------------
D|-----------------------7--6--5--4----------------
A|-------------------------------------------------
E|-------------------------------------------------



E|-----------------------------6--4--5----------------------------0--3--2--1--3--1--------
B|--------------------------5----------------------------------2--------------------3--0--
G|--------------------3--6----------------------------------2-----------------------------
D|--------------2--5-------------------------------0--2--3--------------------------------
A|--0--2--3--4----------------------------0--3--4-----------------------------------------
E|----------------------------------------------------------------------------------------



E|---------------------------------------------5--4----------------------------6--5--4--3--------
B|-----------------------------------------------------------------------------------------4-----
G|--2--0------------------------------------4-----------------------------5----------------------
D|--------3--0---------------------------3-----------------------------6-------------------------
A|--------------2--0---------------2--5--------------------------3--6----------------------------
E|--------------------1------2--3--------------------------3--4----------------------------------



E|------------------------6--5--4--3--------------------------------------------8-----
B|--5---------------------------------6--5--3--------------------------5--6--8-----8--
G|-----4--5--4--3--2---------------------------3-----------------3--6-----------------
D|------------------------------------------------5--3--2--2--5-----------------------
A|------------------------------------------------------------------------------------
E|------------------------------------------------------------------------------------



E|--------5----4--6--4---------------------------------7--5-----------------
B|----------------------6---------------------------5--------8--5-----------
G|-----5-------------------5---------------------5-----------------5--7--5--
D|--7-------------------------6---------------5-----------------------------
A|-------------------------------8------6--7--------------------------------
E|--------------------------------------------------------------------------



E|-----------------------------------------------------------------------------------
B|--------------------5--6--7--8--7--6------------------------3--4--5----------------
G|--------------3--6---------------------------------------4-----------5--5--5----5--
D|--------2--5------------------------------------------5----------------------------
A|--1--4------------------------------------------2--5-------------------------------
E|------------------------------------------2--3-------------------------------------
http://www.guitartabcreator.com
Guitar Tab Creator is intended to store guitar tab created through the tool. It currently does not support in-line text editing. Any text you place in here will be lost. If you need to comment on your tab, please use the "Tab Notes" section located below.