J'attendrai 2

(/) Slide Up  (\) Slide Down  (h) Hammer On  (p) Pull Off  (b) Bend (r) Release (v) Vibrato


E|--------------12--15--------------------------12--15--12--------------------------------
B|----------13------------------------------13--------------13--12--------13--13------10--
G|--11--12------9---12------------------12------------------------------------------------
D|----------10------------------13--14----------------------------------------------------
A|--9---10--------------------------------------------------------------------------------
E|----------------------------------------------------------------------------------------



E|-------------------------------------------------------------------------------------
B|--8--10--8------------------10-------------8--8--8--8-----9--9--9--9-----10------10--
G|------------9------------------------------------------------------------------------
D|---------------10--9--8--7--------------7--------------7--------------7--------------
A|-------------------------------------------------------------------------------------
E|-------------------------------------------------------------------------------------



E|---------------------10-------------------------------------------------13----------
B|--10--12--10--9--10------15--15------13--14b15------13--15--13--12--13------13--12--
G|------------------------------------------------------------------------------------
D|------------------------------------------------------------------------------------
A|------------------------------------------------------------------------------------
E|------------------------------------------------------------------------------------



E|----------------------------------------------------------------------
B|--12--11--10--11b12--10----------10--8--7--8--12--11--10--10--10------
G|------------------------------------------------------------------13--
D|----------------------------------------------------------------------
A|----------------------------------------------------------------------
E|----------------------------------------------------------------------



E|--11--
B|--13--
G|--7---
D|--10--
A|------
E|------



E|------10--11--12--11--10--------------11--11--12----8--12--10--8--12--10--8-----
B|--13----------------------13--11--11--10--10--11-----------------------------8--
G|------7---8---9---8---7---------------11--11--12----5--9---7---5--9---7---5-----
D|--10----------------------10--8---8------------------------------------------5--
A|--------------------------------------------------------------------------------
E|--------------------------------------------------------------------------------



E|--------------------------------------8--9--10--11------12--12--15--------------
B|------------8--12------11-----10----------------------------------------13--13--
G|---------9----------------------------------------------------------12----------
D|--9--10------------10------9----------------------------------------------------
A|--------------------------------------------------------------------------------
E|--------------------------------------------------------------------------------



E|--
B|--
G|--
D|--
A|--
E|--
http://www.guitartabcreator.com
Guitar Tab Creator is intended to store guitar tab created through the tool. It currently does not support in-line text editing. Any text you place in here will be lost. If you need to comment on your tab, please use the "Tab Notes" section located below.