Honeysuckle Rose

(/) Slide Up  (\) Slide Down  (h) Hammer On  (p) Pull Off  (b) Bend (r) Release (v) Vibrato
E|--8----8--6--------5----8--6--------5----8--6--------4/5--5----5-------------------------
B|----------------6----------------6----------------6-------------------9/10--13-----------
G|-------------7----------------7----------------7------------------------------------10v--
D|--------------------------------------------------------------------------------10-------
A|-----------------------------------------------------------------------------------------
E|-----------------------------------------------------------------------------------------



E|--------------------------------------------
B|--------------------------------------------
G|------8h10p8------8------12--8--------------
D|--10----------10-----10---------10-------7--
A|--------------------------------------8-----
E|--------------------------------------------



E|---------------------------------12--10h12p10-------------------------------------
B|-------------------------10--13--------------------10--11v------7--8--9--10--10v--
G|-------------10--12--13------------------------12---------------------------------
D|---------10-----------------------------------------------------------------------
A|--8--12---------------------------------------------------------------------------
E|----------------------------------------------------------------------------------



E|--------11-------------------------------------------------
B|------------14--12-----------------------------------------
G|--5/10--------------13-------------------------------------
D|------------------------14--11---------------11--10h11p10--
A|--------------------------------11-------------------------
E|------------------------------------12--9------------------



E|--8-------------8--10------------------------------------------------------------------
B|-----11--9--10---------10--8-----------------------------------------------------------
G|------------------------------10--8--10--8------8------12--8---------------------------
D|--------------------------------------------10-----10---------10--8h10p8------7--------
A|--------------------------------------------------------------------------10-----8--8--
E|---------------------------------------------------------------------------------------



E|--8--10--11--10h11p10p8----------------------------------------------8---------10--13/17--
B|-------------------------11--8-----------------------------------10-----10/11-------------
G|--------------------------------8---------------------8--10--11---------------------------
D|-----------------------------------10--8h10p8--7--10--------------------------------------
A|------------------------------------------------------------------------------------------
E|------------------------------------------------------------------------------------------
http://www.guitartabcreator.com
Guitar Tab Creator is intended to store guitar tab created through the tool. It currently does not support in-line text editing. Any text you place in here will be lost. If you need to comment on your tab, please use the "Tab Notes" section located below.