Django's Tiger

(/) Slide Up  (\) Slide Down  (h) Hammer On  (p) Pull Off  (b) Bend (r) Release (v) Vibrato
E|--5------4--7------5--5--4--4--------------4--------------------4--------------
B|-------------------------------7--7-----------7-----5--------3-----7--7--------
G|-------------------------------------5--5--------6-----------------------7--7--
D|-------------------------------------------------------------------------------
A|-------------------------------------------------------------------------------
E|-------------------------------------------------------------------------------



E|-------------------------------10--14--10--------------
B|------------------------9--12--------------12----------
G|--------------------11-------------------------11------
D|-------------9--12---------------------------------12--
A|--9--10--11--------------------------------------------
E|-------------------------------------------------------



E|----------------------------------11--15--11---------------------------------
B|--------------------------10--13--------------13-----------------------------
G|----------------------12--------------------------12-------------------------
D|--------------10--13----------------------------------13--10-----------------
A|--10--11--12--------------------------------------------------12--11--10--9--
E|-----------------------------------------------------------------------------



E|--------------------7--10--14------12--11--12--9---------10--9--10--9-------------------------
B|--------------8--9--------------------------------10-------------------10-----12--10--12--10--
G|-----------7------------------------------------------9--------------------9------------------
D|--5--6--9-------------------------------------------------------------------------------------
A|----------------------------------------------------------------------------------------------
E|----------------------------------------------------------------------------------------------



E|------------------------------------------12------8--
B|------9----------------------------------------------
G|---------11--9---------------------------------------
D|--11------------11-----------------------------------
A|--------------------11--9------9---------------------
E|-----------------------------------------------------



E|--11--8-------------------------7--10--8--9--7-----------------------------------------
B|---------11--8---------------7------------------8-----------------------7--5-----------
G|----------------8---------7------------------------9--7--6--7--6--5--6--------6--5--4--
D|-------------------10--9---------------------------------------------------------------
A|---------------------------------------------------------------------------------------
E|---------------------------------------------------------------------------------------



E|--7--6--5----------------------9--8--7----------------------------------------7--10--13--14--9--
B|-----------7--6--5----------------------10--7------------------------------9--------------------
G|--------------------6--5--4--------------------7-----------------7--9--10-----------------------
D|--------------------------------------------------9--8--7--6--9---------------------------------
A|------------------------------------------------------------------------------------------------
E|------------------------------------------------------------------------------------------------



E|--12--10--------------10--11------------------------------12--16--14--16--14--12--------------
B|------------------12----------13----------------------14--------------------------14----------
G|--------------11------------------11------11--13--14----------------------------------15--11--
D|----------12--------------------------13------------------------------------------------------
A|----------------------------------------------------------------------------------------------
E|----------------------------------------------------------------------------------------------



E|-----10-----9--------------------------15--13--15--13----------12--13--12--------------
B|-------------------------------------------------------13--15--------------------------
G|--9------8-------------------------13--------------------------------------14------14--
D|-----------------------14--15--15------------------------------------------------------
A|---------------------------------------------------------------------------------------
E|---------------------------------------------------------------------------------------



E|------------------------------------------------------------------------------------------------
B|--12--12--12-----------------12--12--12--------------12--12--12--------------12--12--13--15-----
G|--------------14/16--16--16--------------16--16--16--------------16--16--16---------------------
D|------------------------------------------------------------------------------------------------
A|------------------------------------------------------------------------------------------------
E|------------------------------------------------------------------------------------------------



E|------------------------------------------------------
B|--12---------12---------12--12---------12-------------
G|------14/16------14/16----------14/16------14/16------
D|------------------------------------------------------
A|------------------------------------------------------
E|------------------------------------------------------



E|---------------------12--17--17--16--19--16--16--14--14--12----------------------
B|-----------------14------------------------------------------15------------------
G|----------13/14--------------------------------------------------16--14--14--13--
D|------11-------------------------------------------------------------------------
A|--12-----------------------------------------------------------------------------
E|---------------------------------------------------------------------------------
http://www.guitartabcreator.com
Guitar Tab Creator is intended to store guitar tab created through the tool. It currently does not support in-line text editing. Any text you place in here will be lost. If you need to comment on your tab, please use the "Tab Notes" section located below.