Cou Cou

(/) Slide Up  (\) Slide Down  (h) Hammer On  (p) Pull Off  (b) Bend (r) Release (v) Vibrato
E|-------------------------------------------------------------------------------------------
B|-------------------------------------------------------------------------------------------
G|-------------------------------------------------------------------------------------------
D|----------------0--2--3--4--5------------------------------0--2--3--4--5-------------------
A|--3------0--------------------------0--1--2--3------0--------------------------0--1--2--3--
E|---------------------------------3------------------------------------------3--------------



E|----------------------------------------------------------
B|----------------------------------------------------------
G|----------------------------------------------------------
D|-----------------------------------0-----2--0-------------
A|--0-----0------------0--2--3----2-----3----------3--0-----
E|-----2-----3------3------------------------------------3--



E|-------------------------------------------------------
B|-------------------------------------------------------
G|--------------5----------------------5-----------------
D|--------2--5-----5--2----------2--5--------------------
A|--3--5-----------------5--3-------------3--------------
E|-------------------------------------------------------



E|-----------------
B|-----------------
G|-----------------
D|--2--0--3--2--5--
A|-----------------
E|-----------------



E|-----------------------------------------------------
B|-----------------------------------------------------
G|------9--12--11--12--11--10--8------------8--10--12--
D|--10----------------------------10-------------------
A|-----------------------------------------------------
E|-----------------------------------------------------



E|---------------------------------------------------------------------8--10--12--13--
B|------------------------------8b10-------------------------------10-----------------
G|--9--7h9p7--5--7--9--7--5---------------9h10p9--7-------------9---------------------
D|---------------------------7-----------------------10--7--10------------------------
A|------------------------------------------------------------------------------------
E|------------------------------------------------------------------------------------



E|--------12--10--8---------------------------------------------------------------------
B|--10---------------10-----------------10----8------------8----9--------------------8--
G|-----------------------10-----------------------------9----------10-------------9-----
D|---------------------------12--10--9-----------9--10-----------------12--9--10--------
A|--------------------------------------------------------------------------------------
E|--------------------------------------------------------------------------------------



E|----------12------10--8h10p8--------------------------------------------------------------
B|--10--13------12--------------10------------------------10b12------10h12p10---------------
G|----------------------------------9------------------9-----------------------9------------
D|-------------------------------------10----------10-----------------------------10--------
A|-----------------------------------------10--12-------------------------------------12----
E|------------------------------------------------------------------------------------------



E|----------------8--12--10p8----------------------------------------------------
B|------------10---------------10------------------------------------------------
G|---------9-----------------------10------------------------------------9----9--
D|--7--10------------------------------12--10------10--10h12p10------10----------
A|---------------------------------------------------------------12--------------
E|-------------------------------------------------------------------------------



E|------------8----------------
B|---------8-----9-------------
G|------9-----------10---------
D|--10------------------12--9--
A|-----------------------------
E|-----------------------------
http://www.guitartabcreator.com
Guitar Tab Creator is intended to store guitar tab created through the tool. It currently does not support in-line text editing. Any text you place in here will be lost. If you need to comment on your tab, please use the "Tab Notes" section located below.