Brazil - django

(/) Slide Up  (\) Slide Down  (h) Hammer On  (p) Pull Off  (b) Bend (r) Release (v) Vibrato

E|--10-------------10--15----------15--10--------------
B|-----------------------------------------11--12------
G|-------------------------------------------------12--
D|------9----------------------------------------------
A|-----------------------------------------------------
E|-----------------------------------------------------



E|------12--13--12------------------------------------------------------------------
B|--15--------------15--13--12--15--13--15--13--12----------------------------------
G|--------------------------------------------------14--12--------------------------
D|----------------------------------------------------------14----------------------
A|--------------------------------------------------------------14--12--12------10--
E|----------------------------------------------------------------------------------



E|--12--13--15--13--15--13--12--11----------------------------------------------------------
B|--------------------------------------13----------11--13--11--10--------------------------
G|------------------------------------------12----------------------12----------------------
D|----------------------------------------------13----------------------13--10--------------
A|------------------------------------------------------------------------------12--10------
E|--------------------------------------------------------------------------------------11--



E|----------------------11--15--11--15--11------------------------------
B|--------------10--13----------------------13----------------------15--
G|----------12----------------------------------12----------------------
D|--10--13------------------------------------------13--12--13--12------
A|----------------------------------------------------------------------
E|----------------------------------------------------------------------



E|---------------------------------------------------------------------------------------------
B|--12--15--12-----------------------------------------------------12------10--8--10--8--7--8--
G|--------------14--12--11--12--9----------12--11--12--11--10--11------11----------------------
D|---------------------------------------------------------------------------------------------
A|---------------------------------------------------------------------------------------------
E|---------------------------------------------------------------------------------------------



E|--8--8--7--6--7--12--10--12--10----------10--10--10--
B|-----------------------------------------------------
G|-----------------------------------------------------
D|-----------------------------------------------------
A|-----------------------------------------------------
E|-----------------------------------------------------



E|--10--10--10--15--15--10--------------
B|--------------------------11--12------
G|----------------------------------12--
D|--------------------------------------
A|--------------------------------------
E|--------------------------------------



E|-----------------10--13--11--12--10-----------------------------------
B|-------------12----------------------13--12--10--9--------------------
G|--9--10--13-----------------------------------------10--9-------------
D|-----------------------------------------------------------12--10--9--
A|----------------------------------------------------------------------
E|----------------------------------------------------------------------



E|---------------------7--10--13--11--12--
B|------------------9---------------------
G|-----------7--10------------------------
D|--7--6--9-------------------------------
A|----------------------------------------
E|----------------------------------------



E|--7--10--9--8--7------------------------------------------------7--10--13--11--12--
B|------------------10--9--------------------------------------9---------------------
G|-------------------------10--9--7------------------7--9--10------------------------
D|-----------------------------------10--9--7--6--9----------------------------------
A|-----------------------------------------------------------------------------------
E|-----------------------------------------------------------------------------------



E|--7--10--9--8------7----------------------------------5---------------------5--
B|----------------------10--9--8--7--6------6--8--6--5---------5--5--5--5--5-----
G|-------------------------------------------------------------------------------
D|-------------------------------------------------------------------------------
A|-------------------------------------------------------------------------------
E|-------------------------------------------------------------------------------



E|--------------------------------------------------------8--11--15--11--------------------------
B|--10---------------------------------------------8--10-----------------13----------------------
G|--------------12--11--10--9--8--9--8----------8----------------------------12------------------
D|------------------------------------------10-----------------------------------13--12--13--12--
A|-----------------------------------------------------------------------------------------------
E|-----------------------------------------------------------------------------------------------



E|------------------------------------------------------------------12--15--18--15--17--
B|------15------15------------------------------------------11--14----------------------
G|--------------------------------------------------12--14------------------------------
D|--12------12------12--12----------13--12--11--14--------------------------------------
A|--------------------------------------------------------------------------------------
E|--------------------------------------------------------------------------------------



E|--12--13--14--15--12--------------------------------------------------
B|----------------------13------------------------------12--15--13------
G|--------------------------14--12--12--------------12--------------14--
D|----------------------------------------------14----------------------
A|----------------------------------------------------------------------
E|----------------------------------------------------------------------



E|--------------14--17--12----------15--12--------------
B|------12--15------------------------------13----------
G|--12------------------------------------------14--12--
D|------------------------------------------------------
A|------------------------------------------------------
E|------------------------------------------------------
http://www.guitartabcreator.com
Guitar Tab Creator is intended to store guitar tab created through the tool. It currently does not support in-line text editing. Any text you place in here will be lost. If you need to comment on your tab, please use the "Tab Notes" section located below.