Song 1

(/) Slide Up  (\) Slide Down  (h) Hammer On  (p) Pull Off  (b) Bend (r) Release (v) Vibrato

Stave 1:

E|------------12--------------------------------------12----------------------------
B|-----9--10----------------9--10--9-----------9--10----------------9--10--9--------
G|----------------10--9---------------7-------------------10--9---------------7-----
D|--7--------------------7---------------6--7--------------------7---------------6--
A|----------------------------------------------------------------------------------
E|----------------------------------------------------------------------------------

Stave 2:

E|------------12-------------------11--------------------12-------------------11----------
B|----------------13-------------------12--------------------13-------------------12------
G|--------------------12-------------------11--------------------12-------------------11--
D|--7--9--10--------------6--7--9--------------7--9--10--------------6--7--9--------------
A|----------------------------------------------------------------------------------------
E|----------------------------------------------------------------------------------------

http://www.guitartabcreator.com
Guitar Tab Creator is intended to store guitar tab created through the tool. It currently does not support in-line text editing. Any text you place in here will be lost. If you need to comment on your tab, please use the "Tab Notes" section located below.