Black Fire Quiet Lead Part

(/) Slide Up  (\) Slide Down  (h) Hammer On  (p) Pull Off  (b) Bend (r) Release (v) Vibrato

E|-------|-----------------------|-------------------------------|-----
B|-------|-----------------------|-------------------------------|-----
G|--11v--|--12v--11--12--14--12--|--11v--11h12r11----------------|-----
D|-------|-----------------------|-----------------14--12/14\11--|-----
A|-------|-----------------------|-------------------------------|-----
E|-------|-----------------------|-------------------------------|-----



E|---------------------------------------------|---------------------------------------------|--
B|--------------12--12--13--12--15b17--12--12--|---------------------------------------------|--
G|--12--12--14---------------------------------|--11--12--14--9--11--12--7--9--11--9--7--6v--|--
D|---------------------------------------------|---------------------------------------------|--
A|---------------------------------------------|---------------------------------------------|--
E|---------------------------------------------|---------------------------------------------|--



E|--------------------------------------12-12--
B|--------------12--12--13--15--12--15--15b17--
G|--12--12--14---------------------------------
D|---------------------------------------------
A|---------------------------------------------
E|---------------------------------------------
http://www.guitartabcreator.com
Guitar Tab Creator is intended to store guitar tab created through the tool. It currently does not support in-line text editing. Any text you place in here will be lost. If you need to comment on your tab, please use the "Tab Notes" section located below.