Black Fire Post Chorus lick

(/) Slide Up  (\) Slide Down  (h) Hammer On  (p) Pull Off  (b) Bend (r) Release (v) Vibrato

E|--15b17v--|--12--------------12---------------------------|----------------------------------------
B|----------|------12--15b17v------12-----------------------|----------------------------------------
G|----------|--------------------------14--14b15r14p12------|--12h14--12h14--12h14--12v--------------
D|----------|-------------------------------------------14--|--12-----12-----12----------14--12--14--
A|----------|-----------------------------------------------|----------------------------------------
E|----------|-----------------------------------------------|----------------------------------------



E|-------|--12-12--
B|-------|--15b17--
G|--12v--|---------
D|-------|---------
A|-------|---------
E|-------|---------
http://www.guitartabcreator.com
Guitar Tab Creator is intended to store guitar tab created through the tool. It currently does not support in-line text editing. Any text you place in here will be lost. If you need to comment on your tab, please use the "Tab Notes" section located below.