Black Fire

(/) Slide Up  (\) Slide Down  (h) Hammer On  (p) Pull Off  (b) Bend (r) Release (v) Vibrato

E|---------------------------12-------------12---------------------------|-----
B|--14--14b15r14p12------12------12--15b17------12-----------------------|-----
G|-------------------14-----------------------------14--14b15r14p12------|-----
D|-------------------------------------------------------------------14--|-----
A|-----------------------------------------------------------------------|-----
E|-----------------------------------------------------------------------|-----



E|----------------------------------------------|--
B|----------------------------12--12------------|--
G|--14--12--------------------12--12------------|--
D|----------14--12h14p12--------------14v--p12--|--
A|------------------------14--------------------|--
E|----------------------------------------------|--



E|---------12---------15b17--12----------------12---------15b17--12---------|--
B|--15b17------15p12-------------15p12--15b17------15p12-------------15p12--|--
G|--------------------------------------------------------------------------|--
D|--------------------------------------------------------------------------|--
A|--------------------------------------------------------------------------|--
E|--------------------------------------------------------------------------|--



E|---------12--------------------------------------------------|--
B|--15b17------15p12-----------------------14------------------|--
G|--------------------14--14b15r14p12------14--12--------------|--
D|-------------------------------------14----------14p12--14v--|--
A|-------------------------------------------------------------|--
E|-------------------------------------------------------------|--
http://www.guitartabcreator.com
Guitar Tab Creator is intended to store guitar tab created through the tool. It currently does not support in-line text editing. Any text you place in here will be lost. If you need to comment on your tab, please use the "Tab Notes" section located below.