Metallica- Enter Sandman (Riff/Intro)


G F# F#
E|--------------------------------------------------------------------------
B|--------------------------------------------------------------------------
G|--------0-----------------0-----------------0-----------------------------
D|--------------------------------------------------------5-----4-----4-----
A|-----7-----------7-----7-----------7-----7-----------7--5-----4-----4-----
E|--0--------6--5-----0--------6--5-----0--------6--5-----3--0--2--0--2-----


G F# E E E G F# F# G F#
E|----------------------------------------------------------------------------
B|----------------------------------------------------------------------------
G|----------------------------------------------------------------------------
D|--5--4-------------------------------------------------5-----4-----4--5--4--
A|--5--4----2--2--7--------2--2--7--------2--2--7--------5-----4-----4--5--4--
E|--3--2----0--0-----6--5--0--0-----6--5--0--0-----6--5--3--0--2--0--2--3--2--
Guitar Tab Creator is intended to store guitar tab created through the tool. It currently does not support in-line text editing. Any text you place in here will be lost. If you need to comment on your tab, please use the "Tab Notes" section located below.