E MAJOR/MINOR PENTATONIC SCALE

MAJOR
E|------------------------------------------12--14--
B|----------------------------------12--14----------
G|------------------------9--11/13------------------
D|-----------------9--11----------------------------
A|--------7--9/11-----------------------------------
E|--7--9--------------------------------------------


MINOR
E|------------------------------------------------15--17--
B|----------------------------------------15--17----------
G|-----------------------------12--14/16------------------
D|---------------------12--14-----------------------------
A|----------10--12/14-------------------------------------
E|--10--12------------------------------------------------
Guitar Tab Creator is intended to store guitar tab created through the tool. It currently does not support in-line text editing. Any text you place in here will be lost. If you need to comment on your tab, please use the "Tab Notes" section located below.