Landuu

(/) Slide Up  (\) Slide Down  (h) Hammer On  (p) Pull Off  (b) Bend (r) Release (v) Vibrato
E|--9---x--9---x--9---9---x--x--9---x--x--------------------------------------x--x--
B|--9---x--9---x--9---9---x--x--9---x--x--------------------------------------x--x--
G|--10--x--10--x--10--10--x--x--10--x--x--------------------------9h11--11b9--x--x--
D|--11--x--11--x--11--11--x--x--11--x--x--9h11p9------9--9--9h11--------------x--x--
A|--11--x--11--x--11--11--x--x--11--x--x----------11--------------------------x--x--
E|--9---x--9---x--9---9---x--x--9---x--x--------------------------------------x--x--



E|--9---x--9---x--9---9---x--x--9---x--x-------------------------------------
B|--9---x--9---x--9---9---x--x--9---x--x-------------------------------------
G|--10--x--10--x--10--10--x--x--10--x--x-------------------------------------
D|--11--x--11--x--11--11--x--x--11--x--x--------9--11p9----------------------
A|--11--x--11--x--11--11--x--x--11--x--x--9h11-----------11--11p9---------9--
E|--9---x--9---x--9---9---x--x--9---x--x---------------------------11--9-----
http://www.guitartabcreator.com
Guitar Tab Creator is intended to store guitar tab created through the tool. It currently does not support in-line text editing. Any text you place in here will be lost. If you need to comment on your tab, please use the "Tab Notes" section located below.