רוחות עבר נושבות בכוח

(/) Slide Up  (\) Slide Down  (h) Hammer On  (p) Pull Off  (b) Bend (r) Release (v) Vibrato
t: E E E E E E E E undefined E E E E E E E undefined E E E E E E E undefined E E E E E E E
E|--------2--1----------0----------2--1--------0----------2--1--------0----------2--1--------0--
B|--------3--2--0-------0----------3--2--0-----0----------3--2--0-----0----------3--2--0-----0--
G|--------4--3--0-------1----------4--3--0-----1----------4--3--0-----1----------4--3--0-----1--
D|--------------0------------------------0----------------------0----------------------0--------
A|--2--2---------------------2--2-------------------2--2-------------------2--2-----------------
E|-----------------0------------------------0----------------------0----------------------0-----



E|--------2--1--------0----------2--1--------0----------2--1--------0----2--2--2--2--2--2--2--2--
B|--------3--2--0-----0----------3--2--0-----0----------3--2--0-----0----2--2--2--2--2--2--2--2--
G|--------4--3--0-----1----------4--3--0-----1----------4--3--0-----1----4--4--4--4--3--3--3--3--
D|--------------0----------------------0----------------------0----------4--4--4--4--4--4--4--4--
A|--2--2-------------------2--2-------------------2--2-------------------4--4--4--4--4--4--4--4--
E|-----------------0----------------------0----------------------0-------2--2--2--2--2--2--2--2--



E|----3----3----0----2----0----0----2--3--3----0----0----1----1----2----2----2----2--
B|----3----3----2----3----1----1----3-----3----1----1----1----1----2----2----2----2--
G|----0----0----2----4----0----0----2-----0----2----2----2----2----4----4----3----3--
D|----0----0----2----4----2----2----0-----0----2----2----3----3----4----4----4----4--
A|----2----2----0----2----3----3----------2----0----0----3----3----4----4----4----4--
E|----3----3------------------------------3--------------1----1----2----2----2----2--



E|--3----3----0----2----0----0----2----3----3----3--------------1----1----0------
B|--3----3----2----3----1----1----3----3----3----3--------------1----1----0------
G|--0----0----2----4----0----0----2----2----0----0--------------2----2----1------
D|--0----0----2----4----2----2----0----0----0----0--------------3----3----2------
A|--2----2----0----2----3----3--------------2----2--------------3----3----2------
E|--3----3----------------------------------3----3----3----2----1----1----0------



E|--------0-----------------------------------------------------------
B|--1------------------0------------------------2------------------2--
G|-----2------------------0---------------4------------------3--------
D|---------------------------2---------------4------------------4-----
A|--0-------------------------------------4------------------4--------
E|---------------------0----------------------------------------------
http://www.guitartabcreator.com
Guitar Tab Creator is intended to store guitar tab created through the tool. It currently does not support in-line text editing. Any text you place in here will be lost. If you need to comment on your tab, please use the "Tab Notes" section located below.