Azalea Town / Blackthorn City

(/) Slide Up  (\) Slide Down  (h) Hammer On  (p) Pull Off  (b) Bend (r) Release (v) Vibrato
E|----------------------13--16--13------13------
B|--14------13--14--16--------------16------14--
G|------13--------------------------------------
D|----------------------------------------------
A|----------------------------------------------
E|----------------------------------------------



E|--------------------------
B|--14--16--14--13--13--14--
G|--------------------------
D|--------------------------
A|--------------------------
E|--------------------------



E|----------14--14--13------------------------------------------
B|------14--------------16--14--13--13--14--16--14--13--14--16--
G|--15----------------------------------------------------------
D|--------------------------------------------------------------
A|--------------------------------------------------------------
E|--------------------------------------------------------------



E|--16--14--13--------------16--14--13------13----------
B|--------------16--14--13--------------16------16--14--
G|------------------------------------------------------
D|------------------------------------------------------
A|------------------------------------------------------
E|------------------------------------------------------



E|--------------16--17--20--20--21--20--------------13----------13------
B|--16--13--14--------------------------18--16--14------16--14------16--
G|----------------------------------------------------------------------
D|----------------------------------------------------------------------
A|----------------------------------------------------------------------
E|----------------------------------------------------------------------



E|------13----------13--18--20--16----------
B|--14------16--14------------------16--13--
G|------------------------------------------
D|------------------------------------------
A|------------------------------------------
E|------------------------------------------
http://www.guitartabcreator.com
Guitar Tab Creator is intended to store guitar tab created through the tool. It currently does not support in-line text editing. Any text you place in here will be lost. If you need to comment on your tab, please use the "Tab Notes" section located below.