song for jazz lolol

E|-------------------------3--------2(h)3-----------------------------3---------2(h)3----------
B|--------0--------0--------3----------------------0---------0---------3-----------------------
G|---------0---------0-----------2------------------0---------0--------------2-----------------
D|--------------2--------------0--------------------------2----------------0-------------------
A|----2-------3----------2-------------------2----------3-----------2--------------------------
E|--0------------------3-------------------0----------------------3----------------------------

E|--3-----3----2------3--2----------------------3-------3--------3------3-----2-------3--2-----
B|----2-----2----3----------2-----2------2--------2-------2--------2------2-----3--------------
G|------0----------2----------0-----0------0---------0------0--------0------------2------------
D|-------------0------0--0------2-----2------2--------------------------------0-------0--0-----
A|--------------------------3------------------------------------------------------------------
E|--3------------------------------------------------------------3-----------------------------



E|-------------------------3--------3-----------3---2--0--3-----3------------------------------
B|--2------2-------2---------2--------2---------3---3--1--1-----3------------------------------
G|----0------0-------0---------0--------0-------0---2--0--0-----0------------------------------
D|------2------2-------2------------------------0---0--2--2-----0------------------------------
A|--3-------------------------------------------2------3--3-----2------------------------------
E|----------------------------------------------3------0--0-----3------------------------------
Guitar Tab Creator is intended to store guitar tab created through the tool. It currently does not support in-line text editing. Any text you place in here will be lost. If you need to comment on your tab, please use the "Tab Notes" section located below.