NewToday

(/) Slide Up  (\) Slide Down  (h) Hammer On  (p) Pull Off  (b) Bend (r) Release (v) Vibrato


E|--------------------------------------------
B|--------------------------------------------
G|--------------------------------------------
D|--------------------------------------------
A|--------------------------------------3-----
E|--3--2--2--2--2--2--1--2--1--2--5--0-----4--



E|--------------------------
B|--------------------------
G|--------------------------
D|--------------------------
A|--------------------------
E|--3--2--0--2--0--1--0--2--



E|--------------------------------------------------------------------------------------------------
B|--------------------------------------------------------------------------------------------------
G|--------------------------------------------------------------------------------------------------
D|--------------------------------------------------------------------------------------------------
A|--------------------------------------------------------------------------2--2--2--2--2--2--2--2--
E|--4--4--4--4--4--4--4--4--4--4--4--4--4--4--4--4--0--0--0--0--0--0--0--0--------------------------



E|--------------------------------------------------------------------------------------------------------------------
B|--------------------------------------------------------------------------------------------------------------------
G|--------------------------------------------------------------------------------------------------------------------
D|--------------------------------------------------------------------------------------------------------------------
A|-----------------------------------------------1--1--1--1--1--1--1--1--------------------------------------------3--
E|--4--5--0--0--0--0--0--3--3--2--2--2--2--5--7--------------------------4--5--0--0--0--0--0--3--2--2--2--2--5--7-----



E|--
B|--
G|--
D|--
A|--
E|--
http://www.guitartabcreator.com
Guitar Tab Creator is intended to store guitar tab created through the tool. It currently does not support in-line text editing. Any text you place in here will be lost. If you need to comment on your tab, please use the "Tab Notes" section located below.