Can't walk like gay

(/) Slide Up  (\) Slide Down  (h) Hammer On  (p) Pull Off  (b) Bend (r) Release (v) Vibrato


E|--------------------------------------------------------------------------------------------------------------------------
B|--------------------------------------------------------------------------------------------------------------------------
G|--------------------------------------------------------------------------------------------------------------------------
D|--------------------------------------------------------------------------------------------------------------------------
A|-----------------------------------1--------------------------------------3-----------------------------------------------
E|--2--0--2--0--1--2----2----2----2-----2--0--2--0--2--0--1--2----2----2-------2--1--0--1--1--1--3--3--3--4--4--4--3--3--3--



E|------------------------------------------------------------------------------------------------------------------------------------------
B|------------------------------------------------------------------------------------------------------------------------------------------
G|------------------------------------------------------------------------------------------------------------------------------------------
D|------------------------------------------------------------------------------------------------------------------------------------------
A|------------------------------------------------------------------------------------------------1-----------------------------------3-----
E|--5--3--5------3--5------3--4--5--5--3--5------3--5------3--4--5--2--0--2--0--1--2----2----2-------2----2--0--2--0--1--2----2----2-----2--
http://www.guitartabcreator.com
Guitar Tab Creator is intended to store guitar tab created through the tool. It currently does not support in-line text editing. Any text you place in here will be lost. If you need to comment on your tab, please use the "Tab Notes" section located below.