Calories

(/) Slide Up  (\) Slide Down  (h) Hammer On  (p) Pull Off  (b) Bend (r) Release (v) Vibrato


E|--------------------------------------------------------------
B|--------------------------------------------------------------
G|--------------------------------------------------------------
D|--------------------------------------------------------------
A|--------------------------------------------------------------
E|--0--0--2--0--0--5--0--2--0--0--0--0--2--0--0--5--0--2--0--2--



E|-----------------
B|-----------------
G|-----------------
D|-----------------
A|--------------5--
E|--0--2--5--2-----



E|-----------------------------------------------------------------------
B|-----------------------------------------------------------------------
G|-----------------------------------------------------------------------
D|-----------------------------------------------------------------------
A|-----------------4-----------------4-----------------4-----------------
E|--0--0--2--5--2-----0--0--2--5--2-----0--0--2--5--2-----0--0--2--5--2--



E|--------------------------
B|--------------------------
G|--------------------------
D|--------------------------
A|--------------------------
E|--0--1--2--1--0--1--2--6--



E|--------------------------------
B|--------------------------------
G|--------------------------------
D|--------------------------------
A|--------------------------------
E|--0--2--0--4--7--5--3--3--3--5--



E|-----------------------------------------------------------------------------------------------------------
B|-----------------------------------------------------------------------------------------------------------
G|-----------------------------------------------------------------------------------------------------------
D|-----------------------------------------------------------------------------------------------------------
A|--8-----------1--3-----1--3-----1--3-----1--3-----1--3-----1--3-----1--3-----1--3-----1--1--1--1--3--3--3--
E|-----0--0--0--------0--------0--------0--------0--------0--------0--------0--------0-----------------------



E|----------------------
B|----------------------
G|----------------------
D|----------------------
A|--5--8--10--10--------
E|----------------------
http://www.guitartabcreator.com
Guitar Tab Creator is intended to store guitar tab created through the tool. It currently does not support in-line text editing. Any text you place in here will be lost. If you need to comment on your tab, please use the "Tab Notes" section located below.