intro The air I'm breathing tab

(/) Slide Up  (\) Slide Down  (h) Hammer On  (p) Pull Off  (b) Bend (r) Release (v) Vibrato

E|--5--5--5--5-----------5--5--5--5--------5h7--7--7--7--7--5----------
B|--------------7--8--7--------------7--8----------------------7/8--7--
G|---------------------------------------------------------------------
D|---------------------------------------------------------------------
A|---------------------------------------------------------------------
E|---------------------------------------------------------------------



E|--7--7--7--7--5----------7--7--7--7--5-------------7--7--7--7--7--5-------------
B|-----------------7/8--7-----------------7/8--7--5--------------------7/8--7--5--
G|--------------------------------------------------------------------------------
D|--------------------------------------------------------------------------------
A|--------------------------------------------------------------------------------
E|--------------------------------------------------------------------------------
http://www.guitartabcreator.com
Guitar Tab Creator is intended to store guitar tab created through the tool. It currently does not support in-line text editing. Any text you place in here will be lost. If you need to comment on your tab, please use the "Tab Notes" section located below.