Premise - 2nd to outro.

(/) Slide Up  (\) Slide Down  (h) Hammer On  (p) Pull Off  (b) Bend (r) Release (v) Vibrato
E|----------------------------------------------------------------------------------------------
B|----------------------------------------------------------------------------------------------
G|----------------------------------------------------------------------------------------------
D|----------------------------------------------------------------------------------------------
A|--8-----8-----8-----5h7h8-----8-----8-----5h7h8-----8-----8-----7h8h10-----10-----8-----8-----
E|-----0-----0-----0---------0-----0-----0---------0-----0-----0----------8------7-----8-----7--



E|----------------------------------------------------------------------------------------------------
B|----------------------------------------------------------------------------------------------------
G|----------------------------------------------------------------------------------------------------
D|----------------------------------------------------------------------------------------------------
A|--8-----8-----8-----5h7h8-----8-----8-----5h7h8-----7-----5-----7-----5-----3-----3h5p3h0--1h3p1p0--
E|-----0-----0-----0---------0-----0-----0---------0-----0-----0-----0-----0-----0--------------------
http://www.guitartabcreator.com
Guitar Tab Creator is intended to store guitar tab created through the tool. It currently does not support in-line text editing. Any text you place in here will be lost. If you need to comment on your tab, please use the "Tab Notes" section located below.