howls moving castle

(/) Slide Up  (\) Slide Down  (h) Hammer On  (p) Pull Off  (b) Bend (r) Release (v) Vibrato
E|--------------------|--------------------|--------------------|----------------|----------------|--
B|--0--1--0--1--0--1--|-----0-----0-----0--|--------------------|----------------|--0-------------|--
G|--0--2--0--2--0--2--|--2-----2-----2-----|--0--2--0--2--0--2--|----------------|----------------|--
D|--------------------|--4-----4-----4-----|--2--4--2--4--2--4--|--4----------1--|-------------1--|--
A|--------------------|--------------------|--------------------|--6----------2--|-------------2--|--
E|--------------------|--------------------|--------------------|--5----------2--|-------------2--|--



E|-----------|--------------|-----------|--------------|-----------------|--0-----0--|--
B|--------0--|--0-----------|-----------|--------------|--------------0--|-----------|--
G|-----------|-----------0--|--2--0-----|--0-----------|-----------0-----|-----0-----|--
D|-----2-----|-----------2--|--1-----4--|-----0--------|--------2--------|-----2-----|--
A|--2--------|--0-----------|--2--------|-----2--------|-----2-----------|--0--------|--
E|-----------|--------------|-----------|--0-----------|--0--------------|-----------|--



E|--0--2--------|----------------|-----------------|--2-----0--|-----------|--0--------|--
B|--1-----3--1--|--3-------------|--------------3--|-----0-----|--3--2--3--|--------3--|--
G|--2-----------|-----4----------|-----4-----4-----|-----0-----|-----------|-----------|--
D|--2-----------|-----4----------|-----4--4--------|-----------|-----------|-----0-----|--
A|--------------|----------------|-----------------|--4--------|-----------|--2--------|--
E|--------------|--3-------------|--3--------------|-----------|--2--------|-----------|--



E|------------|-----------|-----------|---------------|--3--------|--2--------|--3------|--
B|--2------0--|-----------|--0--------|---------------|-----------|-----------|---------|--
G|------------|--2--0--2--|-----2-----|---------------|-----------|-----------|---------|--
D|------------|--0--------|--------2--|--4------------|-----------|-----------|---------|--
A|--0---------|-----------|-----------|--2------------|-----------|-----------|---------|--
E|------------|--3--------|--2--------|---------------|-----------|-----------|---------|--



E|--2--0--------------|--------|-----------|-----------|-----------|-----------|-----------|--
B|--------4--1--0-----|--------|-----------|-----------|-----------|-----------|--0-----0--|--
G|--------------------|--------|-----0--0--|-----0--0--|-----0--0--|--------0--|-----0-----|--
D|--------------------|--------|-----2--2--|-----2--2--|-----2--2--|-----2-----|-----2-----|--
A|-----------------2--|--------|-----------|--2--------|-----------|--2--------|--0--------|--
E|--------------------|--------|--0--------|-----------|--0--------|-----------|-----------|--



E|-----------|-----------|-----------|--0-----0--|--0--2--------|-----------|-----------|--
B|-----------|-----------|--------0--|-----------|--1-----3--1--|--3--------|--------3--|--
G|--2--0-----|--0--------|-----0-----|-----0-----|--2-----------|--------0--|-----0-----|--
D|--1-----4--|--------2--|--2--------|-----2-----|--2-----------|-----0-----|--4--------|--
A|--2--------|-----2-----|-----------|--0--------|--------------|-----------|-----------|--
E|-----------|--0--------|--0--------|-----------|--------------|--3--------|-----------|--



E|--2-----0--|-----------|--0--------|-----------|-----------|-----------|-----------|--
B|-----0-----|--3--2--3--|--------3--|--2-----0--|-----------|--0--------|--------0--|--
G|-----0-----|-----------|-----------|-----------|--2--0--2--|-----2-----|-----4-----|--
D|-----------|-----------|-----0-----|-----2-----|--0--------|--------2--|--4--------|--
A|--4--------|-----------|--2--------|--0--------|-----------|-----------|--2--------|--
E|-----------|--2--------|-----------|-----------|--3--------|--2--------|-----------|--



E|-----------|-----------|-----------|-----------|--------------|--0-----0--|--0--2--------|--
B|-----------|--0-----0--|-----------|-----------|-----------0--|-----------|--1-----3--1--|--
G|--------0--|-----0-----|--2--0-----|--0--------|-----0--------|-----0-----|--2-----------|--
D|-----2-----|-----2-----|--1-----4--|--------2--|--2-----------|-----2-----|--2-----------|--
A|--2--------|--0--------|--2--------|-----2-----|--------------|--3--------|--------------|--
E|-----------|-----------|-----------|--0--------|--1-----0--3--|-----------|--------------|--



E|-----------|-----------|--2-----0--|-----------------|--0--------|-----------------|--------------|--
B|--3--------|--------3--|-----0-----|-----3--2--1--2--|--------3--|-----2--0-----0--|--0-----------|--
G|--------0--|-----4-----|-----0-----|-----------------|-----------|-----------3-----|--------2--0--|--
D|-----0-----|--4--------|-----------|-----------------|-----0-----|-----------------|-----0--------|--
A|-----------|-----------|--4--------|-----------------|--2--------|--0--------------|--------------|--
E|--3--------|-----------|-----------|--2--------------|-----------|-----------------|--3-----------|--



E|-----------|-----------|-----------|--------|--------|-----------|-----------|-----------|--
B|-----------|--0--------|-----------|--------|--------|--------0--|--1-----0--|-----------|--
G|-----1--3--|-----------|-----------|--------|--------|-----------|-----2-----|--2--0-----|--
D|--4--------|-----------|--1--------|--------|--------|--1--------|--0--------|--0-----4--|--
A|-----------|-----2--4--|-----2-----|--------|--2--4--|-----2-----|-----------|-----------|--
E|--2--------|-----------|--------2--|--------|--------|--------2--|-----------|-----------|--



E|-----------|----------------|-----------|-----------------|-----------|-----------|-----
B|--------0--|----------------|--1-----0--|-----------------|--0--------|-----------|-----
G|--0--2-----|----------------|-----2-----|--2--------0--2--|--------0--|--------0--|-----
D|-----------|----0--------0--|--0--------|--0--------------|-----0-----|-----0-----|-----
A|-----------|----------------|-----------|-----------------|-----------|-----------|-----
E|--3--------|----3-----------|-----------|-----------------|--3--------|--3--------|-----



E|-----------------|-----------|-----------|-----------|-----------|-----------|-----------|-----
B|--0--2--0-----0--|--3--2--0--|--------2--|-----------|--3-----3--|--3--2--0--|--2--------|-----
G|-----------3-----|-----------|--3--------|-----------|-----------|-----------|--------3--|-----
D|-----------------|-----------|-----4-----|--4-----4--|-----0-----|-----------|-----4-----|-----
A|--2--------------|--2--------|-----------|-----4-----|--2--------|--2--------|-----------|-----
E|-----------------|-----------|--2--------|--2--------|-----------|-----------|--2--------|-----



E|--2--------|-----------|-----0--2--|--3--------------|--------------------|-----------|--
B|-----2-----|--4-----4--|--4--------|-----------------|--------------------|--2-----2--|--
G|--------3--|--4-----4--|-----------|-----4--2--0-----|--------------------|--2-----2--|--
D|-----------|--4--4-----|-----------|--------------4--|--5--4--2--0--2--0--|--2--2-----|--
A|-----------|--2--2-----|-----------|-----------------|--------------------|--4--------|--
E|-----------|-----------|-----------|--0--------------|--------------------|-----------|--



E|--------0--|--2--------------|-----0-----|-----------|--0--------|-----------|--------2--|--
B|--2--3-----|-----------------|--------3--|--2--1--2--|-----3--2--|--0-----0--|--2--------|--
G|-----------|-----2--0--------|-----------|-----------|-----------|-----3-----|-----------|--
D|-----------|--0--------4--2--|--0--------|-----------|--2--------|-----------|-----4-----|--
A|--0--------|-----------------|-----------|-----------|--3--------|-----------|-----------|--
E|-----------|-----------------|-----------|--4--------|-----------|--2--------|--2--------|--



E|--5-----3--|--2-----0--|-----------------|-----------------|-----------------|--
B|-----------|-----------|--4--------------|-----------------|-----------------|--
G|-----5-----|-----5-----|-----2--4--2--0--|-----0--2--0-----|-----------------|--
D|-----------|-----------|-----------------|--------------4--|-----2--4--2--1--|--
A|--0--------|--0--------|--2--------------|--2--------------|--2--------------|--
E|-----------|-----------|-----------------|-----------------|-----------------|--



E|----------|------------|----------|-----------------|-----------------|-----------------|--
B|----------|------------|----------|--0-----0-----0--|--------0-----0--|--------0-----0--|--
G|----------|------------|----------|-----4-----4-----|-----4-----4-----|-----4-----4-----|--
D|----------|------------|----------|-----------------|-----------------|-----------------|--
A|----------|------------|----------|--2--------------|--2--------------|--2--------------|--
E|----------|------------|----------|-----------------|-----------------|-----------------|--



E|-----------------|-----------|-----------|-----------------|-----|--
B|-----0--2--0-----|--0--------|-----------|--0-----0-----0--|--0--|--
G|--------------3--|--0--2--0--|-----1--3--|--4--4-----4-----|--4--|--
D|--------------0--|--2--------|--4--------|--4--------------|--4--|--
A|--2--------------|--2--------|-----------|--2--------------|--2--|--
E|-----------------|-----------|--2--------|-----------------|-----|--
http://www.guitartabcreator.com
Guitar Tab Creator is intended to store guitar tab created through the tool. It currently does not support in-line text editing. Any text you place in here will be lost. If you need to comment on your tab, please use the "Tab Notes" section located below.