dancing the night away motors bass line

(/) Slide Up  (\) Slide Down  (h) Hammer On  (p) Pull Off  (b) Bend (r) Release (v) Vibrato

E|--------------------------------------------------------------------------
B|--------------------------------------------------------------------------
G|--------------------------------------------------------------------------
D|--------------------------------------------------------------------------
A|--------------------------------------0--2--5--0--2--5--2--4--7--2--4--7--
E|--0--2--5--0--2--3--0--2--5--0--2--3--------------------------------------



E|--------------------------------------------------------------------------
B|--------------------------------------------------------------------------
G|--------------------------------------------------------------------------
D|--------------------------------------------------------------------------
A|--0--2--5--0--2--5--2--4--7--2--4--7--------------------------------------
E|--------------------------------------0--2--5--0--2--5--2--4--7--2--4--7--



E|--------------------------------------------------------------------------
B|--------------------------------------------------------------------------
G|--------------------------------------------------------------------------
D|--------------------------------------------------------------------------
A|--5--7--7--5--7--7--5--7--7--5--7--7--5--7--7--5--7--7--5--7--7--5--7--7--
E|--------------------------------------------------------------------------



E|-----------------------------------------------------------------------------------
B|-----------------------------------------------------------------------------------
G|-----------------------------------------------------------------------------------
D|-----------------------------------------------------------------------------------
A|--5--7--7--5--7--7--5--7--7--5--7--7--------------------3--5--5--3--5--5--5--7--7--
E|--------------------------------------3--5--5--3--5--5-----------------------------



E|--
B|--
G|--
D|--
A|--
E|--



E|-----------------------------------------------------------------
B|-----------------------------------------------------------------
G|-----------------------------------------------------------------
D|-----------------------------------------------------------------
A|-----------------------5--5--5--4--2--2--7--7--7--7--7--7--7--7--
E|--5--5--5--5--5--5--5--------------------------------------------



E|--------------------------------------------------------------
B|--------------------------------------------------------------
G|--------------------------------------------------------------
D|--------------------------------------------------------------
A|--------------------------------7--7--7--7--7--7--7--7--7--7--
E|--5--5--5--5--5--5--5--5--5--5--------------------------------



E|--------------------------------------------------------------------------
B|--------------------------------------------------------------------------
G|--------------------------------------------------------------------------
D|--------------------------------------------------------------------------
A|--------------------------------------7--7--7--7--7--7--7--7--7--7--7--7--
E|--7--7--7--7--7--7--7--7--5--5--5--5--------------------------------------



E|-----------------------------------------------------------------------
B|-----------------------------------------------------------------------
G|-----------------------------------------------------------------------
D|--------------------------------------------------7-----------------7--
A|--7--7--7--7--7--7--7--7-----------------------7-----7-----------7-----
E|--------------------------7--7--7--7--5--5--5-----------5--5--5--------



E|--------------------------------------------------------------------
B|--------------------------------------------------------------------
G|--------------------------------------------------------------------
D|--------------------------------------------------------------------
A|--------------------------------------------------------------------
E|--0--2--5--5--5--5--0--2--5--5--5--5--0--2--3--3--3--0--2--3--3--3--



E|--------------------------------------------------------------
B|--------------------------------------------------------------
G|--------------------------------------------------------------
D|--------------------------------------------------------------
A|--0--2--5--5--5--0--2--5--5--5--2--4--7--7--7--2--4--7--7--7--
E|--------------------------------------------------------------
http://www.guitartabcreator.com
Guitar Tab Creator is intended to store guitar tab created through the tool. It currently does not support in-line text editing. Any text you place in here will be lost. If you need to comment on your tab, please use the "Tab Notes" section located below.