Mah First Tab

(/) Slide Up  (\) Slide Down  (h) Hammer On  (p) Pull Off  (b) Bend (r) Release (v) Vibrato

E|-----------------------------------------
B|-----------------------------------------
G|-----------------------------------------
D|-----1-----1-----1-----1-----0-----0-----
A|--3-----3-----3-----3-----1-----1-----1--
E|-----------------------------------------



E|--------------------------------------------------------------------------------
B|--------------------------------------------------------------------------------
G|--------------------------------------------------------------------------------
D|-----1-----1-----1-----1-----0-----0--------1-----1-----1-----1-----0-----0-----
A|--3-----3-----3-----3-----1-----1-----1--3-----3-----3-----3-----1-----1-----1--
E|--------------------------------------------------------------------------------



E|--------------------
B|--------------------
G|--------------------
D|-----1-----1-----1--
A|--3-----3-----3-----
E|--------------------
							http://www.guitartabcreator.com
Note:

 

E|-----------------------------------------
B|-----------------------------------------
G|-----------------------------------------
D|-----1-----1-----1-----1-----0-----0-----
A|--3-----3-----3-----3-----1-----1-----1--
D|-----------------------------------------
 
 
 
E|--------------------------------------------------------------------------------
B|--------------------------------------------------------------------------------
G|--------------------------------------------------------------------------------
D|-----1-----1-----1-----1-----0-----0--------1-----1-----1-----1-----0-----0-----
A|--3-----3-----3-----3-----1-----1-----1--3-----3-----3-----3-----1-----1-----1--
D|--------------------------------------------------------------------------------
 
 
 
E|--------------------
B|--------------------
G|--------------------
D|-----1-----1-----1--
A|--3-----3-----3-----
D|--------------------
Guitar Tab Creator is intended to store guitar tab created through the tool. It currently does not support in-line text editing. Any text you place in here will be lost. If you need to comment on your tab, please use the "Tab Notes" section located below.