Slash - Anastasia

(/) Slide Up  (\) Slide Down  (h) Hammer On  (p) Pull Off  (b) Bend (r) Release (v) Vibrato

E|-----12--11--12--9--12--11--
B|--9-------------------------
G|----------------------------
D|----------------------------
A|----------------------------
E|----------------------------



E|-----12--11--12--9--12--11--12--
B|--9-----------------------------
G|--------------------------------
D|--------------------------------
A|--------------------------------
E|--------------------------------



E|------12--11--12--9--12--11--12--
B|--10-----------------------------
G|---------------------------------
D|---------------------------------
A|---------------------------------
E|---------------------------------



E|------12--11--12--9--12--11--12--
B|--10-----------------------------
G|---------------------------------
D|---------------------------------
A|---------------------------------
E|---------------------------------



E|------14--12--14--11--14--12--14--
B|--11------------------------------
G|----------------------------------
D|----------------------------------
A|----------------------------------
E|----------------------------------



E|------14--12--14--11--14--12--14--
B|--11------------------------------
G|----------------------------------
D|----------------------------------
A|----------------------------------
E|----------------------------------



E|------14--11--14--12--14--11--14--
B|--12------------------------------
G|----------------------------------
D|----------------------------------
A|----------------------------------
E|----------------------------------



E|------14--11--14--12--14--11--14--
B|--12------------------------------
G|----------------------------------
D|----------------------------------
A|----------------------------------
E|----------------------------------



E|------16--14--16--11--16--14--16--
B|--13------------------------------
G|----------------------------------
D|----------------------------------
A|----------------------------------
E|----------------------------------



E|------16--14--16--11--16--14--16--
B|--13------------------------------
G|----------------------------------
D|----------------------------------
A|----------------------------------
E|----------------------------------



E|------16--12--16--11--16--12--16--
B|--14------------------------------
G|----------------------------------
D|----------------------------------
A|----------------------------------
E|----------------------------------



E|------16--12--16--11--16--12--16--
B|--14------------------------------
G|----------------------------------
D|----------------------------------
A|----------------------------------
E|----------------------------------



E|------17--16--17------16--14--16------14--13--14------14--13--14--
B|--14--------------13--------------12--------------11--------------
G|------------------------------------------------------------------
D|------------------------------------------------------------------
A|------------------------------------------------------------------
E|------------------------------------------------------------------



E|------12--11--12-----12--11--12-----11--10--11-----11--10--11--
B|--10--------------9--------------8-----------------------------
G|------------------------------------------------8--------------
D|---------------------------------------------------------------
A|---------------------------------------------------------------
E|---------------------------------------------------------------



E|---------------------------------------------------------
B|--9--12--11--12--8--11--9--11--7--11--9--11--6--9--8--9--
G|---------------------------------------------------------
D|---------------------------------------------------------
A|---------------------------------------------------------
E|---------------------------------------------------------



E|--------------------------------
B|--5--9--7--9-----7--6--7--6--4--
G|--------------4-----------------
D|--------------------------------
A|--------------------------------
E|--------------------------------
Guitar Tab Creator is intended to store guitar tab created through the tool. It currently does not support in-line text editing. Any text you place in here will be lost. If you need to comment on your tab, please use the "Tab Notes" section located below.