I want you (Bob Dylan)

[code]
(/) Slide Up (\) Slide Down (h) Hammer On (p) Pull Off (b) Bend (r) Release (v) Vibrato

Stave 1:

E|--0-----------0--1p0-----0--0-----------0--1p0-----0--0-----------0--1p0---------------------------
B|--------1-------------3-----------0-------------3-----------1-------------3--1--3-----1p0----------
G|-----0-------------------------0-------------------------2------------------------------------2p0--
D|-----------2-------------------------2-------------------------2-------------------0-------0-------
A|--3-------------------------2-------------------------0--------------------------------------------
E|--------------------------------------------------------------------------------3------------------

Stave 2:

E|-----------1-----------1--1p0--------3-----------3--3p1--0-----0-----------0--1p0--------------
B|-----------------1-------------3--1--------3----------------3--------1-------------3--1--3-----
G|--------------2-------------------------0-------------------------2----------------------------
D|--------------------3-------------------------0-------------------------2-------------------0--
A|-----0--2------------------------------------------------------0-------------------------------
E|--3--------1-------------------------3---------------------------------------------------3-----

Stave 3:

E|------------------------|--
B|--1p0-------------------|--
G|----------2p0-----------|--
D|-------0----------------|--
A|------------------0--2--|--
E|---------------3--------|--

[/code]
[url]http://www.guitartabcreator.com[/url]
Guitar Tab Creator is intended to store guitar tab created through the tool. It currently does not support in-line text editing. Any text you place in here will be lost. If you need to comment on your tab, please use the "Tab Notes" section located below.