Dont know yet

(/) Slide Up  (\) Slide Down  (h) Hammer On  (p) Pull Off  (b) Bend (r) Release (v) Vibrato


E|--------------------------------------------------------------------------------------
B|--4--------4--3--------3--2--------2--1--------1--4--------4--2--------2--3-----------
G|-----5-----------4-----------3-----------2-----------4-----------2-----------3--------
D|--------6-----------5-----------4-----------3-----------4-----------2-----------3-----
A|--------------------------------------------------------------------------------------
E|--------------------------------------------------------------------------------------



E|-----------------------------------------------------------------
B|--3--1--------1--3--------3--1--------1--2--------2--0--------0--
G|--------1-----------3-----------1-----------2-----------0--------
D|-----------1-----------3-----------1-----------2-----------0-----
A|-----------------------------------------------------------------
E|-----------------------------------------------------------------



E|-----------------------------------------
B|-----------------------------------------
G|-----------------------------------------
D|--7--7--5--3--7--7--5--3--3--3--3--5--5--
A|--7--7--5--3--7--7--5--3--3--3--3--5--5--
E|--5--5--3--1--5--5--3--1--1--1--1--3--3--
http://www.guitartabcreator.com
Guitar Tab Creator is intended to store guitar tab created through the tool. It currently does not support in-line text editing. Any text you place in here will be lost. If you need to comment on your tab, please use the "Tab Notes" section located below.