J-A-R (RKNG) Solo 2

(/) Slide Up  (\) Slide Down  (h) Hammer On  (p) Pull Off  (b) Bend (r) Release (v) Vibrato


E|---------------------------------------------------------------------------
B|-------------------8---------9-8-7---7-------------------------------------
G|-----5---5-7/9-7-9---9-7-9-9-------9---9-8-7---5-7-5---5-------------------
D|-5-7---7-------------------------------------7-------7---7-5---5-----5-5-5-
A|-------------------------------------------------------------7---6h7-------
E|---------------------------------------------------------------------------



E|-------------------------------------8-8-7-6--------------
B|---------------------------------------------9b8b8---10---
G|---4-------------------5-7p5---5-7/9---------------9------
D|-7---7-5---5-----5-6-7-------7----------------------------
A|---------7---6h7------------------------------------------
E|----------------------------------------------------------



E|---------8----8-10-----8-10-12--12p11p10-8---------------8----8-10-12-10-12-12-12b11---
B|-10-9-10---10-------10---------------------10----8/10-10---10--------------------------
G|---------------------------------------------------------------------------------------
D|---------------------------------------------------------------------------------------
A|---------------------------------------------------------------------------------------
E|---------------------------------------------------------------------------------------



E|-11b10-8--------------------------------------------------------------------------
B|---------10-8-10-10---8---8-8-----------------------------------------------------
G|--------------------9---9-----9\7-5---5-7-5---5-----------------------------------
D|------------------------------------7-------7---7-5---5-----7-5-----5-------------
A|----------------------------------------------------7---6h7-----6h7---7\5-3-----3-
E|----------------------------------------------------------------------------5-5---



E|-------------------------------
B|-------------------------------
G|-------------------------------
D|-----5-----5-6-7---------7p5---
A|-5/7---6-7---------------------
E|-----------------------------5-
http://www.guitartabcreator.com
Guitar Tab Creator is intended to store guitar tab created through the tool. It currently does not support in-line text editing. Any text you place in here will be lost. If you need to comment on your tab, please use the "Tab Notes" section located below.