J-A-R (RKNG) Solo 1

(/) Slide Up  (\) Slide Down  (h) Hammer On  (p) Pull Off  (b) Bend (r) Release (v) Vibrato
E|---------------------------------------------------------
B|------------------------8--------------------------------
G|----------5-----5--7/9-----9--8--7--5--7--5-----5--------
D|--5/7--7-----7-------------------------------7-----7-----
A|------------------------------------------------------7--
E|---------------------------------------------------------



E|-----------------------5----------------------------------------------
B|--10--9----7--8--7--5-------------------------------------------------
G|--------------------------5--7--5-----5--------5----------------------
D|-----------------------------------7-----7--5-----7--5-----5-------5--
A|--------------------------------------------------------7-----6h7-----
E|----------------------------------------------------------------------



E|---------------------------------------------------------------------------------
B|-------------------------8-------------------------------------------------------
G|-----5--7--5-----5--7/9-----9--8--7--5--7--5-----5-------------------------------
D|--7-----------7-------------------------------7-----7--5-----5------7--7--7--7---
A|----------------------------------------------------------7-----6h7---------------
E|---------------------------------------------------------------------------------



E|---------------------------------------------------------------------------------
B|---------------------------------------------------------------------------------
G|--------------------------5------------------------------------------------------
D|--7p5-----5-------5--6h7-----7----------------------------------5-----------5h6--
A|-------7-----6h7----------------------------3-----3--5/7--5--7-----5--6--7-------
E|------------------------------------3/5--5-----5---------------------------------



E|--------------------------------------------------------------------------------------------
B|--------------------------------------------------------------------------------------------
G|--9--8----5--7-------5---------------------------------------5-------5----------------------
D|------------------7-----7p5-----5-------5-------5----5--6h7-----6h7-----7--5-----5-------5--
A|-----------------------------7-----6h7-----6h7--------------------------------7-----6h7-----
E|--------------------------------------------------------------------------------------------



E|----------------------------------------------------------------------
B|--4--5--4-------------------------------------------------------------
G|-----------7--5-----5--7p5-----5--------------------------------------
D|-----------------7----------7-----7p5-----5-------7-------------------
A|---------------------------------------7-----6h7-----6p5--3-----------
E|-------------------------------------------------------------5--5--5--
http://www.guitartabcreator.com
Guitar Tab Creator is intended to store guitar tab created through the tool. It currently does not support in-line text editing. Any text you place in here will be lost. If you need to comment on your tab, please use the "Tab Notes" section located below.