Why I Am

(/) Slide Up  (\) Slide Down  (h) Hammer On  (p) Pull Off  (b) Bend (r) Release (v) Vibrato

E|--------------------------------------------------------
B|--------1--------1--------1--------1--------1--------1--
G|-----2--------0--------0--------0--------0--------0-----
D|--3--------2--------0-----------------------------------
A|-----------------------------3--------2--------0--------
E|--------------------------------------------------------



E|-------------------------------------------------
B|-----3-----3-----3-------------------------------
G|-----0-----0-----0-----9-----7-------------------
D|-----0-----x-----x-----x-----x-------------------
A|-----x-----3-----2-----7-----5-------------------
E|-----3-------------------------------------------



E|-------------
B|-12-13-12-15-
G|-------------
D|-------------
A|-------------
E|-------------



E|---------
B|---------
G|---------
D|---------
A|-2-3-2-5-
E|---------



E|--------------------------------------
B|--------1--------1--------1--------0--
G|-----0--------0--------0--------0-----
D|--------------------------------------
A|--0--------3--------2--------3--------
E|--------------------------------------



E|--------------------------
B|--------------------------
G|--------5-----------5--0--
D|--3--7--5--5--3--7--5--2--
A|--3--7--3--5--3--7--3--2--
E|--1--5-----3--1--5-----0--



E|-----------------------------------------
B|--------1--------1--------1--------1-----
G|-----0--------0--------0--------2--------
D|--------------------------------------5--
A|--0--------3--------2-----------------x--
E|-----------------------------1--------3--
http://www.guitartabcreator.com
Guitar Tab Creator is intended to store guitar tab created through the tool. It currently does not support in-line text editing. Any text you place in here will be lost. If you need to comment on your tab, please use the "Tab Notes" section located below.