Typical Situation

(/) Slide Up  (\) Slide Down  (h) Hammer On  (p) Pull Off  (b) Bend (r) Release (v) Vibrato


E|-----0-----0-----0------------
B|-----0-----1-----0-----8------
G|-----0-----0-----0-----7------
D|-----2-----2-----2-----10-----
A|-----2-----3-----2------------
E|-----0-----------0-----8------



E|------------------0------------
B|-----8-----10-----0-----8------
G|-----7-----10-----2-----7------
D|-----9-----10-----2-----10-----
A|------------------0------------
E|-------------------------------



E|----------------------------------12--12--15--15--15--12----------------------------------------
B|--12--13------------------14--14--------------------------15--12-----------------15--15--15-----
G|--12--14--12--12--14--14------------------------------------------14--12--12h14-----------------
D|------------------------------------------------------------------------------------------------
A|------------------------------------------------------------------------------------------------
E|------------------------------------------------------------------------------------------------



E|----------------------15--15--17--19-------------15--15--15--15--15------------------------------
B|--13--12------12--13------------------17--16--15\13------15--13--14----------12--13--12----------
G|----------12--12-----------------------------------------12--12--12--12--14--------------14--12--
D|-------------------------------------------------------------------------------------------------
A|-------------------------------------------------------------------------------------------------
E|-------------------------------------------------------------------------------------------------



E|------------------0--0--0--0---15--15--12--10--3--1--5--8---
B|------------------3--5--8--13--12--12--12--10--0--1--5--8---
G|--11--9--7--5--4--4--5--9--12--14--14--14--12--4--0--0--0---
D|-----------------------------------------------5--3--7--10--
A|------------------------------------------------------------
E|------------------------------------------------------------



E|-----------------------------------------------------------------------------
B|-----------------------------------------------------------------------------
G|-----------------------------------------------------------------------------
D|----9----9----9----9---7---7---7---7---7---7---7---7----10----10----10----10-
A|-10---10---10---10---8---8---8---8---7---7---7---7---10----10----10----10----
E|-----------------------------------------------------------------------------
http://www.guitartabcreator.com
Guitar Tab Creator is intended to store guitar tab created through the tool. It currently does not support in-line text editing. Any text you place in here will be lost. If you need to comment on your tab, please use the "Tab Notes" section located below.