Two Step

(/) Slide Up  (\) Slide Down  (h) Hammer On  (p) Pull Off  (b) Bend (r) Release (v) Vibrato


E|-----1-----------------1-----------------------1-----
B|-----3-----3-----3-----3-----3-----3-----3-----3-----
G|-----2-----0-----0-----2-----0-----0-----0-----2-----
D|-----0-----------0-----0-----x-----x-----3-----0-----
A|-----0-----3-----5-----0-----1-----3-----------0-----
D|-----0-----------5-----0-----------------------0-----



E|-----1-----------0-----1-----6-----------3-----1-----6-----------3-----
B|-----3-----------1-----1-----6-----6-----3-----1-----6-----6-----3-----
G|-----2-----------0-----2-----7-----5-----3-----2-----7-----5-----3-----
D|-----0-----------2-----3-----8-----7-----5-----3-----8-----7-----5-----
A|-----0-----1-----3-----------------------------------------------------
D|-----0-----------------------------------------------------------------



E|-----1-----8------3-----6-----------1-----6-----------3-----
B|-----1-----8------3-----6-----6-----1-----6-----6-----3-----
G|-----2-----9------3-----7-----5-----2-----7-----5-----3-----
D|-----3-----10-----5-----8-----7-----3-----8-----7-----5-----
A|------------------------------------------------------------
D|------------------------------------------------------------
http://www.guitartabcreator.com
Guitar Tab Creator is intended to store guitar tab created through the tool. It currently does not support in-line text editing. Any text you place in here will be lost. If you need to comment on your tab, please use the "Tab Notes" section located below.