Tripping Billies

(/) Slide Up  (\) Slide Down  (h) Hammer On  (p) Pull Off  (b) Bend (r) Release (v) Vibrato


E|-----------------------------2-----------------------------2-----
B|-----------------------------3-----2-----------------2-----3-----
G|-----2-----4-----2-----4-----4-----2-----2-----4-----2-----4-----
D|-----0-----0-----0-----0-----4-----2-----0-----0-----2-----4-----
A|-----------------------------2-----0-----------------0-----2-----
E|-----2-----3-----2-----3-----------------2-----3-----------------



E|-----------------------------------------------------
B|-----2-----3-----1-----1-----2-----3-----3-----3-----
G|-----2-----0-----0-----0-----2-----0-----0-----0-----
D|-----2-----4-----2-----------2-----4-----0-----0-----
A|-----0-----5-----3-----2-----0-----5-----------------
E|-----------------------------------------2-----3-----



E|-----------------------------2-----------------------------------2-----
B|-----7-----5-----------------3-----2-----7-----5-----------------3-----
G|-----7-----6-----------------4-----2-----7-----6-----------------4-----
D|-----9-----7-----------------4-----2-----9-----7-----------------4-----
A|-----------------------------2-----0-----------------------------2-----
E|-----------------2-----3-----------------------------2-----3-----------
http://www.guitartabcreator.com
Guitar Tab Creator is intended to store guitar tab created through the tool. It currently does not support in-line text editing. Any text you place in here will be lost. If you need to comment on your tab, please use the "Tab Notes" section located below.