The Stone

(/) Slide Up  (\) Slide Down  (h) Hammer On  (p) Pull Off  (b) Bend (r) Release (v) Vibrato


E|-----5-------------------------------17--13--15--15--12--13--12------
B|--------6--8--8--5--6--5---------15------------------------------15--
G|--7-----------------------7------------------------------------------
D|---------------------------------------------------------------------
A|---------------------------------------------------------------------
E|---------------------------------------------------------------------



E|-----------------------------
B|-----------------------------
G|-----------------------------
D|-----------------------------
A|-----------------------------
E|--0--7--3--5--5--2--3--2--0--



E|-----------1-------
B|---1---1---3---1---
G|---2---x---2---0---
D|---3---2---0---2---
A|---x---3-------3---
E|---3---2-----------
http://www.guitartabcreator.com
Guitar Tab Creator is intended to store guitar tab created through the tool. It currently does not support in-line text editing. Any text you place in here will be lost. If you need to comment on your tab, please use the "Tab Notes" section located below.