The Song That Jane Likes

(/) Slide Up  (\) Slide Down  (h) Hammer On  (p) Pull Off  (b) Bend (r) Release (v) Vibrato
E|-------------------------------------8------------------------------------------3-----5-----
B|-----10-----5-----10-----8-----5-----8-----5-----5-----10-----------------------1-----3-----
G|-----11-----5-----10-----7-----5-----7-----5-----5-----10-----------------------0-----------
D|-----12-----5-----10-----9-----7-----9-----5-----7-----10-----------------------2-----4-----
A|--------------------------------------------------------------------------------3-----5-----
E|--------------------------------------------------------------------------------------------



E|-----------------0-----3/5-----0-----------------3-----
B|-----------------1-----1/3-----1-----------------0-----
G|-----------------0-----0/x-----0-----------------0-----
D|-----------------2-----2/4-----2-----------------0-----
A|-----0-----2-----3-----3/5-----3-----2-----0-----2-----
E|-------------------------------------------------3-----
http://www.guitartabcreator.com
Guitar Tab Creator is intended to store guitar tab created through the tool. It currently does not support in-line text editing. Any text you place in here will be lost. If you need to comment on your tab, please use the "Tab Notes" section located below.