Lie In Our Graves

(/) Slide Up  (\) Slide Down  (h) Hammer On  (p) Pull Off  (b) Bend (r) Release (v) Vibrato


E|--3----------------------------------------
B|--2----------------------------------3--5--
G|--3----------------------------------4--6--
D|--0-------------------------2--------5--7--
A|-----4--2----------0--2--4-----4-----5--7--
E|----------------------------------3--------



E|--------------------------5--------
B|--3--5--7--------3--5--7-----7-----
G|--4--6--7--6--4--------------------
D|--5--7--7--------------------------
A|--5--7--5--------------------------
E|--------------------------------3--



E|--2-----2--3/5--2--------3h5p3--2-----2--
B|--3--3-------------3--1------------5-----
G|--2-------------------2------------------
D|--0-------------------2------------------
A|----------------------0------------------
E|-----------------------------------------
http://www.guitartabcreator.com
Guitar Tab Creator is intended to store guitar tab created through the tool. It currently does not support in-line text editing. Any text you place in here will be lost. If you need to comment on your tab, please use the "Tab Notes" section located below.