Dancing Nancies

(/) Slide Up  (\) Slide Down  (h) Hammer On  (p) Pull Off  (b) Bend (r) Release (v) Vibrato


E|-----------------------------------------------------5-----0------0-----
B|-----------------------------------------------------5-----10-----0-----
G|-----------------------------------------------------6-----11-----6-----
D|-----------------7-----5-----------------5-----4-----7-----0------7-----
A|-----------5-----------------------4-----------------------0------0-----
E|-----3-----------------------2------------------------------------------



E|------------------------------
B|------------------------------
G|-----7-----11-----6-----4-----
D|-----9-----12-----7-----6-----
A|-----9-----12-----7-----6-----
E|-----7-----10-----5-----4-----
http://www.guitartabcreator.com
Guitar Tab Creator is intended to store guitar tab created through the tool. It currently does not support in-line text editing. Any text you place in here will be lost. If you need to comment on your tab, please use the "Tab Notes" section located below.