Crush

(/) Slide Up  (\) Slide Down  (h) Hammer On  (p) Pull Off  (b) Bend (r) Release (v) Vibrato


E|-----2-----------2-----2-----1-----3-----------2-----
B|-----3-----8-----3-----2-----1-----0-----1-----3-----
G|-----4-----7-----4-----2-----2-----0-----0-----4-----
D|-----4-----9-----2-----2-----3-----0-----2-----4-----
A|-----2-----------5-----5-----3-----2-----3-----2-----
E|-----------------------------1-----3-----------------



E|-----------------------------------------------------------------
B|-----3-----5-----5-----3-----0-----5-----------1-----5-----------
G|-----2-----4-----4-----2-----4-----4-----9-----0-----7-----------
D|-----0-----------------0-----2-----2-----7-----2-----6-----------
A|-----0-----------------0-----------------------3-----7-----------
E|-----3-----------------3-----------------------------------------



E|-----------------------------------0--7-----------7-----------7-----------7-----------2--2-----
B|--3--5--5--3--5--0--5-----------1--------7-----------7-----------7-----------7--------3--2-----
G|--2--4--4--2--4--4--4--------0--------------7-----------7-----------7-----------7-----4--2-----
D|--0--------------2--2-----2--------------------9-----------------------9--------------2--2-----
A|--0--------------------3-----------------------------------9-----------------------9--5--5-----
E|--3--------3-----------------------------------------------------------------------------------



E|---1---3-------------------------------
B|---1---0---1---1---3---1---0-----------
G|---2---0---0---0---0-----------2---0---
D|---3---0---2---0---0-------------------
A|---3---2---3---3---2-------------------
E|---1---3-------------------------------



E|---1---3-------2---
B|---1---0---1---3---
G|---2---0---0---4---
D|---3---0---2---4---
A|---3---2---3---2---
E|---1---3-----------
http://www.guitartabcreator.com
Guitar Tab Creator is intended to store guitar tab created through the tool. It currently does not support in-line text editing. Any text you place in here will be lost. If you need to comment on your tab, please use the "Tab Notes" section located below.