Big Eyed Fish

(/) Slide Up  (\) Slide Down  (h) Hammer On  (p) Pull Off  (b) Bend (r) Release (v) Vibrato


E|------------------------------
B|-----12-----8-----8-----7-----
G|-----9------5-----4-----4-----
D|------------------------------
A|------------------------------
E|------------------------------



E|-----7------------------------------------------
B|-----8-----5-----8-----7------------------3-----
G|-----9-----5-----7-----7------------------0-----
D|-----9-----5-----9-----9-----5-----10-----4-----
A|------------------------------------------5-----
E|-----------------------------3-----8------------
http://www.guitartabcreator.com
Guitar Tab Creator is intended to store guitar tab created through the tool. It currently does not support in-line text editing. Any text you place in here will be lost. If you need to comment on your tab, please use the "Tab Notes" section located below.