Ants Marching

(/) Slide Up  (\) Slide Down  (h) Hammer On  (p) Pull Off  (b) Bend (r) Release (v) Vibrato


E|--------------
B|--10------10--
G|--10--11--12--
D|--------------
A|--------------
E|--------------



E|--------------------------------------------------------
B|--------------------------------------------------------
G|--------------------------------------------------------
D|--12--10--9---------------------5--3--2-----------------
A|-------------12--10--9-------------------5--3--2--------
E|------------------------12--10--------------------5--3--
http://www.guitartabcreator.com
Guitar Tab Creator is intended to store guitar tab created through the tool. It currently does not support in-line text editing. Any text you place in here will be lost. If you need to comment on your tab, please use the "Tab Notes" section located below.