#41

(/) Slide Up  (\) Slide Down  (h) Hammer On  (p) Pull Off  (b) Bend (r) Release (v) Vibrato


E|-----5-----7-----7-----------0-----0-----0-----0-----0-----0-----0-----0-----
B|-----5-----7-----8-----7-----1-----3-----8-----0-----1-----3-----0-----3-----
G|-----5-----7-----7-----7-----0-----0-----0-----7-----0-----2-----0-----2-----
D|-----5-----7-----9-----7-----2-----4-----9-----7-----2-----4-----0-----0-----
A|-----7-----9-----7-----5-----0-----2-----7-----5-----0-----2-----2-----------
E|-----5-----7-----------------------------------------------------0-----------



E|-----3-----2-----3-----0-----
B|-----3-----3-----1-----1-----
G|-----0-----2-----0-----0-----
D|-----0-----0-----2-----2-----
A|-----2-----------3-----3-----
E|-----3-----2-----------------
http://www.guitartabcreator.com
Guitar Tab Creator is intended to store guitar tab created through the tool. It currently does not support in-line text editing. Any text you place in here will be lost. If you need to comment on your tab, please use the "Tab Notes" section located below.