Text1


G|-------------------------------------------------------------------------
D|-------------------------------------------------------------------------
A|-----7--8--7------------------7--8--7-----------------9--10--9-----------
E|--5-----------5--4--5------5-----------5--4--5--6--7------------7--6--7--


G|-------------------------------------------------
D|-------------------------------------------------
A|-----9--10--9------------------7--8--7-----------
E|--7------------7--6--5------5-----------5--4--5--
Guitar Tab Creator is intended to store guitar tab created through the tool. It currently does not support in-line text editing. Any text you place in here will be lost. If you need to comment on your tab, please use the "Tab Notes" section located below.