Arabian Dreams Guitar 2

(/) Slide Up  (\) Slide Down  (h) Hammer On  (p) Pull Off  (b) Bend (r) Release (v) Vibrato
E|-----|-----|------------|-----|-----|--------------|-----|------------|-----|--
B|-----|-----|------------|-----|-----|--------------|-----|------------|-----|--
G|-----|-----|------------|-----|-----|--------------|-----|------------|-----|--
D|-----|-----|------------|-----|-----|--------------|-----|------------|-----|--
A|--7--|--7--|--7------7--|--5--|--7--|--7--------7--|--7--|--7------7--|--5--|--
E|-----|-----|------------|-----|-----|--------------|-----|------------|-----|--
Tremolo ~~~~~~~~~~~~~~~>~~~~~~~~~~~~~~~~~~~~~~~~~~~~~~~~~~~~~~~~~~~~~>~~~~~~~~~~~


E|-----|-----|------|-----|---------|------|---------|-----|----|--
B|-----|-----|------|-----|---------|------|---------|-----|----|--
G|-----|-----|------|-----|---------|------|---------|-----|----|--
D|-----|-----|--5---|--7--|--9---7--|------|---------|-----|----|--
A|--7--|--7--|--7---|--9--|--10-----|--10--|--7~~~~--|--5--|----|--
E|-----|-----|------|-----|---------|------|--10--8--|-----|----|--
~~~~~~~~~~~~~


E|---------|---------------|-----------|-------------|------------|---|---------|-
B|---------|---------------|-----------|-------------|------------|---|---------|-
G|---------|---------------|-----------|-------------|------------|---|---------|-
D|-9h10-12~~~~12-9h10-12-9-|-10-7h9-10~~~10-7h9-10-7-|------------|---|---------|-
A|---------|---------------|-----------|-------------|-11--8h11p8-|-7-|-7-7---7-|-
E|---------|---------------|-----------|-------------|------------|---|---------|-
PM PM


E|---------|---------|---------|---------|---------|--------|------------|---
B|---------|---------|---------|---------|---------|--------|------------|---
G|---------|---------|---------|---------|---------|--------|------------|---
D|---------|---------|---------|---------|---------|--6h7-9~~~9--6h7-9-6-|---
A|-7-7---7-|-5-5---5-|-5-5---5-|-7-7---7-|-7-7---7-|--------|------------|---
E|---------|---------|---------|---------|---------|--------|------------|---
PM PM PM PM PM PM PM PM PM PM


E|------------|-------------|---------|---|--------|--------|--------|--------|-
B|------------|-----------6-|-5-------|---|--------|--------|--------|--------|-
G|------------|---------7---|-7-------|---|--------|--------|--------|--------|-
D|-7------7~~~~~7--7h11-----|---6h9p6-|-9-|--------|--------|--------|--------|-
A|---8h10-----|-------------|---------|-7-|--------|--------|--------|--------|-
E|------------|-------------|---------|---|-7----7-|-7----7-|-5----5-|-5----5-|-
PM PM PM PM


E|--------|---------|----------|---------------|-----------|-------------|---|---|-
B|--------|---------|----------|---------------|-----------|-------------|---|---|-
G|--------|---------|----------|---------------|-----------|----------10-|-9-|-9-|-
D|--------|---------|--9-10-12~~~12--9-10-12-9-|-10-7-9-10~~10-7-9-10----|---|---|-
A|--------|---------|----------|---------------|-----------|-------------|---|---|-
E|-7----7-|-7-7---7-|----------|---------------|-----------|-------------|---|---|-
PM PM PM


E|-------------|-----------|-----------|-------------|-----------|-----------|-
B|-------------|-----------|-----------|-------------|-----------|---------6-|-
G|-------------|-----------|-----------|-------------|-----7---6-|-7---6-7---|-
D|-6-----6-----|-6---------|---------7-|-9-6-7-9-6-7-|-9-6---7---|---7-------|-
A|---7-8---7-8-|---7-8-5-7-|-8-5-7-8---|-------------|-----------|-----------|-
E|-------------|-----------|-----------|-------------|-----------|-----------|-



E|---------------|------------|--------------|---------------|------------|--------------
B|-9------9------|-9----------|-----------10-|--------9------|-9----------|-----------10-
G|---9-10---9-10-|---9-10-7-9-|-10-7-9-10----|-9-9-10---9-10-|---9-10-7-9-|-10-7-9-10----
D|---------------|------------|--------------|---------------|------------|--------------
A|---------------|------------|--------------|---------------|------------|--------------
E|---------------|------------|--------------|---------------|------------|--------------



E|------------------------------|----------------|---------------|--------|-----|-----
B|--9--9--10--10--9--9--10--10--|--9--9--10--10--|--9--9------9~~~~~9--9--|-----|-----
G|------------------------------|----------------|--9--9------9~~~~~9--9--|-----|-----
D|------------------------------|----------------|---------------|--------|--9~~~~~9--
A|------------------------------|----------------|---------------|--------|--7~~~~~7--
E|------------------------------|----------------|---------------|--------|-----|-----



E|----|------------------|-------------------|------------------|----------------------|-----
B|----|------------------|-------------------|------------------|----------------------|-----
G|----|------------------|-------------------|------------------|----------------------|-----
D|----|--9--7p6--7p6-----|-------------6-----|--9--7p6--7p6-----|-------------6--------|-----
A|----|---------------7--|--8--8p7--8-----7--|---------------7--|--8--8p7--8-----7-----|-----
E|----|------------------|-------------------|------------------|-------------------7--|-----



E|-----------|---|---|----------------|---------------------|----------------|-
B|-----------|---|---|----------------|---------------------|----------------|-
G|-----------|---|---|-9--------------|---------------------|-9--------------|-
D|---------6-|---|---|---10p9-10p9----|-------------9-------|---10p9-10p9----|-
A|-8-8p7-8---|-7-|---|-------------11-|-12-12p11-12---11----|-------------11-|-
E|-----------|---|---|----------------|------------------12-|----------------|-



E|------------------|---------------------|---------------|--------|----|-----------------
B|------------------|---------------------|---------------|--------|----|-----------------
G|------------------|---------------------|---------------|--------|----|-----------------
D|-------------9----|-------------9-------|-------------9-|--------|----|-------------6h7-
A|-12-12p11-12---11-|-12-12p11-12---11----|-12-12p11-12---|-11-----|----|-7h8-7p5-7h8-----
E|------------------|------------------12-|---------------|--------|----|-----------------



E|------------|-----------------|----------|-----------------------|-----------|-
B|------------|-----------------|----------|-----------------------|-----------|-
G|------------|-----------------|----------|-----------------------|-9--9h10-9-|-
D|-9--9h10-9--|-------------6h7-|-9--76----|------------------9h10-|-----------|-
A|------------|-7h8-7p5-7h8-----|--------7-|-11h12-11p8-11h12------|-----------|-
E|------------|-----------------|----------|-----------------------|-----------|-



E|-------------|----------|-------|-----|---|---------|---------|------|-
B|-------------|----------|-------|-----|---|---------|---------|------|-
G|-9--9h10-9---|----------|-------|-----|---|---------|---------|------|-
D|-----------9-|-10p9-6h9-|-------|-----|---|-9--9--9-|-9--9--9-|-7----|-
A|-------------|----------|-7~~~~~~~7---|---|---------|---------|------|-
E|-------------|----------|-------|-----|---|---------|---------|------|-



E|---------|---------------|------------|-----------|---------|---------------|-
B|---------|---------------|------------|-----------|---------|---------------|-
G|-------7-|---------------|------------|-----------|---------|---------------|-
D|--7------|-9-99-9-9-9-9--|-9-99-9--9--|-7----7---7|-7--7--7-|---9-9-------9-|-
A|---------|-7-77-7-7-7-7--|-7-77-7--7--|-5----5---5|-5--5--5-|-7-----7-77----|-
E|---------|---------------|------------|-----------|---------|---------------|-



E|------------|---------------|------------|---------------|-----------|---------------|-
B|------------|---------------|------------|---------------|-----------|---------------|-
G|---------7--|---------------|------------|---------------|---------7-|---------------|-
D|---9-9---x--|---9-9-------9-|---9-9---7--|---9-9-------9-|---9-9---x-|---9-9-------9-|-
A|-7-----7-5--|-7-----7-77----|-7-----7-5--|-7-----7-77----|-7-----7-5-|-7-----7-77----|-
E|------------|---------------|------------|---------------|-----------|---------------|-



E|------------|---------------|---------------|--------|--------|--------|------|-
B|------------|---------------|---------------|--------|--------|--------|------|-
G|---------7--|---------------|---------------|--------|--------|--------|------|-
D|---9-9---x--|---9-9-------9-|---9-9-------9-|--------|--------|--------|------|-
A|-7-----7-5--|-7-----7-77----|-7-----7-77----|-7------|--------|--------|-7----|-
E|------------|---------------|---------------|------8-|-8----5-|-7------|------|-
http://www.guitartabcreator.com
Guitar Tab Creator is intended to store guitar tab created through the tool. It currently does not support in-line text editing. Any text you place in here will be lost. If you need to comment on your tab, please use the "Tab Notes" section located below.